ISO-10303-21;
HEADER;
FILE_DESCRIPTION (( 'STEP AP203' ),
    '1' );
FILE_NAME ('Web Model 66191.STEP',
    '2017-01-31T19:35:08',
    ( '' ),
    ( '' ),
    'SwSTEP 2.0',
    'SolidWorks 2016',
    '' );
FILE_SCHEMA (( 'CONFIG_CONTROL_DESIGN' ));
ENDSEC;

DATA;
#1 = DIRECTION ( 'NONE',  ( 1.000000000000000000, 0.0000000000000000000, -0.0000000000000000000 ) ) ;
#2 = DATE_AND_TIME ( #12, #156 ) ;
#3 = ADVANCED_FACE ( 'NONE', ( #169 ), #94, .F. ) ;
#4 = PERSON_AND_ORGANIZATION ( #46, #98 ) ;
#5 = CC_DESIGN_SECURITY_CLASSIFICATION ( #173, ( #115 ) ) ;
#6 = COORDINATED_UNIVERSAL_TIME_OFFSET ( 5, 0, .BEHIND. ) ;
#7 = CIRCLE ( 'NONE', #161, 25.00000000000000000 ) ;
#8 = PRODUCT_RELATED_PRODUCT_CATEGORY ( 'detail', '', ( #48 ) ) ;
#9 = CALENDAR_DATE ( 2017, 31, 1 ) ;
#10 = ORIENTED_EDGE ( 'NONE', *, *, #57, .T. ) ;
#11 = EDGE_CURVE ( 'NONE', #58, #117, #163, .T. ) ;
#12 = CALENDAR_DATE ( 2017, 31, 1 ) ;
#13 = CC_DESIGN_PERSON_AND_ORGANIZATION_ASSIGNMENT ( #154, #111, ( #18 ) ) ;
#14 = CIRCLE ( 'NONE', #102, 25.00000000000000000 ) ;
#15 = DIRECTION ( 'NONE',  ( -0.0000000000000000000, -0.0000000000000000000, -1.000000000000000000 ) ) ;
#16 = PERSON_AND_ORGANIZATION_ROLE ( 'creator' ) ;
#17 = APPLICATION_CONTEXT ( 'configuration controlled 3d designs of mechanical parts and assemblies' ) ;
#18 = PRODUCT_DEFINITION ( 'UNKNOWN', '', #115, #90 ) ;
#19 = APPROVAL_STATUS ( 'not_yet_approved' ) ;
#20 = DIRECTION ( 'NONE',  ( 0.0000000000000000000, 0.0000000000000000000, 1.000000000000000000 ) ) ;
#21 = COORDINATED_UNIVERSAL_TIME_OFFSET ( 5, 0, .BEHIND. ) ;
#22 = APPROVAL_PERSON_ORGANIZATION ( #4, #64, #152 ) ;
#23 = CC_DESIGN_PERSON_AND_ORGANIZATION_ASSIGNMENT ( #171, #42, ( #173 ) ) ;
#24 = CARTESIAN_POINT ( 'NONE',  ( 0.0000000000000000000, 0.0000000000000000000, 0.2000000000000000100 ) ) ;
#25 = EDGE_LOOP ( 'NONE', ( #39, #53, #10, #144 ) ) ;
#26 = CARTESIAN_POINT ( 'NONE',  ( -25.00000000000000000, 0.0000000000000000000, 0.2000000000000000100 ) ) ;
#27 = ADVANCED_BREP_SHAPE_REPRESENTATION ( 'Web Model 66191', ( #95, #54 ), #105 ) ;
#28 = PRODUCT_DEFINITION_SHAPE ( 'NONE', 'NONE',  #18 ) ;
#29 = CARTESIAN_POINT ( 'NONE',  ( 0.0000000000000000000, 0.0000000000000000000, 0.0000000000000000000 ) ) ;
#30 = PERSON_AND_ORGANIZATION ( #46, #98 ) ;
#31 = CC_DESIGN_APPROVAL ( #121, ( #115 ) ) ;
#32 = FACE_OUTER_BOUND ( 'NONE', #81, .T. ) ;
#33 = ORIENTED_EDGE ( 'NONE', *, *, #131, .T. ) ;
#34 = VECTOR ( 'NONE', #119, 1000.000000000000000 ) ;
#35 = CIRCLE ( 'NONE', #89, 25.00000000000000000 ) ;
#36 = DIRECTION ( 'NONE',  ( 1.000000000000000000, 0.0000000000000000000, 0.0000000000000000000 ) ) ;
#37 = DIRECTION ( 'NONE',  ( 1.000000000000000000, 0.0000000000000000000, -0.0000000000000000000 ) ) ;
#38 = APPROVAL_DATE_TIME ( #2, #132 ) ;
#39 = ORIENTED_EDGE ( 'NONE', *, *, #145, .F. ) ;
#40 = CARTESIAN_POINT ( 'NONE',  ( 0.0000000000000000000, 0.0000000000000000000, 0.2000000000000000100 ) ) ;
#41 = APPROVAL_ROLE ( '' ) ;
#42 = PERSON_AND_ORGANIZATION_ROLE ( 'classification_officer' ) ;
#43 = COORDINATED_UNIVERSAL_TIME_OFFSET ( 5, 0, .BEHIND. ) ;
#44 = EDGE_CURVE ( 'NONE', #106, #113, #151, .T. ) ;
#45 = CYLINDRICAL_SURFACE ( 'NONE', #68, 25.00000000000000000 ) ;
#46 = PERSON ( 'UNSPECIFIED', 'UNSPECIFIED', 'UNSPECIFIED', ('UNSPECIFIED'), ('UNSPECIFIED'), ('UNSPECIFIED') ) ;
#47 = PERSON_AND_ORGANIZATION ( #46, #98 ) ;
#48 = PRODUCT ( 'Web Model 66191', 'Web Model 66191', '', ( #162 ) ) ;
#49 = AXIS2_PLACEMENT_3D ( 'NONE', #29, #77, #37 ) ;
#50 = CARTESIAN_POINT ( 'NONE',  ( 25.00000000000000000, 3.061616997868383000E-015, 0.2000000000000000100 ) ) ;
#51 = DIRECTION ( 'NONE',  ( 1.000000000000000000, 0.0000000000000000000, 0.0000000000000000000 ) ) ;
#52 = CARTESIAN_POINT ( 'NONE',  ( 25.00000000000000000, 3.061616997868383000E-015, 0.0000000000000000000 ) ) ;
#53 = ORIENTED_EDGE ( 'NONE', *, *, #11, .T. ) ;
#54 = AXIS2_PLACEMENT_3D ( 'NONE', #165, #20, #138 ) ;
#55 = PERSON_AND_ORGANIZATION ( #46, #98 ) ;
#56 = FACE_OUTER_BOUND ( 'NONE', #25, .T. ) ;
#57 = EDGE_CURVE ( 'NONE', #117, #113, #141, .T. ) ;
#58 = VERTEX_POINT ( 'NONE', #50 ) ;
#59 = DIRECTION ( 'NONE',  ( 0.0000000000000000000, 0.0000000000000000000, 1.000000000000000000 ) ) ;
#60 = PLANE ( 'NONE',  #92 ) ;
#61 = CARTESIAN_POINT ( 'NONE',  ( -25.00000000000000000, 0.0000000000000000000, 0.0000000000000000000 ) ) ;
#62 = DATE_AND_TIME ( #9, #167 ) ;
#63 = DIRECTION ( 'NONE',  ( -0.0000000000000000000, -0.0000000000000000000, -1.000000000000000000 ) ) ;
#64 = APPROVAL ( #19, 'UNSPECIFIED' ) ;
#65 = PERSON_AND_ORGANIZATION_ROLE ( 'design_owner' ) ;
#66 = CC_DESIGN_PERSON_AND_ORGANIZATION_ASSIGNMENT ( #120, #16, ( #115 ) ) ;
#67 = CYLINDRICAL_SURFACE ( 'NONE', #82, 25.00000000000000000 ) ;
#68 = AXIS2_PLACEMENT_3D ( 'NONE', #148, #15, #79 ) ;
#69 = APPROVAL_DATE_TIME ( #140, #64 ) ;
#70 = ORIENTED_EDGE ( 'NONE', *, *, #145, .T. ) ;
#71 = CC_DESIGN_PERSON_AND_ORGANIZATION_ASSIGNMENT ( #30, #166, ( #115 ) ) ;
#72 = PERSON_AND_ORGANIZATION ( #46, #98 ) ;
#73 = CC_DESIGN_APPROVAL ( #64, ( #18 ) ) ;
#74 = CALENDAR_DATE ( 2017, 31, 1 ) ;
#75 = SHAPE_DEFINITION_REPRESENTATION ( #28, #27 ) ;
#76 = CC_DESIGN_DATE_AND_TIME_ASSIGNMENT ( #62, #164, ( #173 ) ) ;
#77 = DIRECTION ( 'NONE',  ( 0.0000000000000000000, 0.0000000000000000000, 1.000000000000000000 ) ) ;
#78 = DIRECTION ( 'NONE',  ( 1.000000000000000000, 0.0000000000000000000, 0.0000000000000000000 ) ) ;
#79 = DIRECTION ( 'NONE',  ( -1.000000000000000000, 0.0000000000000000000, 0.0000000000000000000 ) ) ;
#80 = SECURITY_CLASSIFICATION_LEVEL ( 'unclassified' ) ;
#81 = EDGE_LOOP ( 'NONE', ( #33, #70 ) ) ;
#82 = AXIS2_PLACEMENT_3D ( 'NONE', #137, #109, #146 ) ;
#83 = DATE_TIME_ROLE ( 'creation_date' ) ;
#84 = LOCAL_TIME ( 14, 35, 8.000000000000000000, #6 ) ;
#85 = CC_DESIGN_DATE_AND_TIME_ASSIGNMENT ( #127, #83, ( #18 ) ) ;
#86 = APPROVAL_DATE_TIME ( #143, #121 ) ;
#87 = CLOSED_SHELL ( 'NONE', ( #108, #149, #136, #3 ) ) ;
#88 = APPROVAL_PERSON_ORGANIZATION ( #72, #121, #125 ) ;
#89 = AXIS2_PLACEMENT_3D ( 'NONE', #40, #160, #51 ) ;
#90 = DESIGN_CONTEXT ( 'detailed design', #112, 'design' ) ;
#91 = ORIENTED_EDGE ( 'NONE', *, *, #44, .T. ) ;
#92 = AXIS2_PLACEMENT_3D ( 'NONE', #24, #147, #1 ) ;
#93 = CARTESIAN_POINT ( 'NONE',  ( 0.0000000000000000000, 0.0000000000000000000, 0.0000000000000000000 ) ) ;
#94 = PLANE ( 'NONE',  #49 ) ;
#95 = MANIFOLD_SOLID_BREP ( 'Extrude1', #87 ) ;
#96 =( LENGTH_UNIT ( ) NAMED_UNIT ( * ) SI_UNIT ( .MILLI., .METRE. ) );
#97 = CALENDAR_DATE ( 2017, 31, 1 ) ;
#98 = ORGANIZATION ( 'UNSPECIFIED', 'UNSPECIFIED', '' ) ;
#99 =( NAMED_UNIT ( * ) PLANE_ANGLE_UNIT ( ) SI_UNIT ( $, .RADIAN. ) );
#100 = APPROVAL_STATUS ( 'not_yet_approved' ) ;
#101 = VECTOR ( 'NONE', #63, 1000.000000000000000 ) ;
#102 = AXIS2_PLACEMENT_3D ( 'NONE', #158, #118, #36 ) ;
#103 = COORDINATED_UNIVERSAL_TIME_OFFSET ( 5, 0, .BEHIND. ) ;
#104 = ORIENTED_EDGE ( 'NONE', *, *, #57, .F. ) ;
#105 =( GEOMETRIC_REPRESENTATION_CONTEXT ( 3 ) GLOBAL_UNCERTAINTY_ASSIGNED_CONTEXT ( ( #130 ) ) GLOBAL_UNIT_ASSIGNED_CONTEXT ( ( #96, #99, #124 ) ) REPRESENTATION_CONTEXT ( 'NONE', 'WORKASPACE' ) );
#106 = VERTEX_POINT ( 'NONE', #133 ) ;
#107 = FACE_OUTER_BOUND ( 'NONE', #157, .T. ) ;
#108 = ADVANCED_FACE ( 'NONE', ( #56 ), #45, .T. ) ;
#109 = DIRECTION ( 'NONE',  ( -0.0000000000000000000, -0.0000000000000000000, -1.000000000000000000 ) ) ;
#110 = ORIENTED_EDGE ( 'NONE', *, *, #134, .F. ) ;
#111 = PERSON_AND_ORGANIZATION_ROLE ( 'creator' ) ;
#112 = APPLICATION_CONTEXT ( 'configuration controlled 3d designs of mechanical parts and assemblies' ) ;
#113 = VERTEX_POINT ( 'NONE', #61 ) ;
#114 = COORDINATED_UNIVERSAL_TIME_OFFSET ( 5, 0, .BEHIND. ) ;
#115 = PRODUCT_DEFINITION_FORMATION_WITH_SPECIFIED_SOURCE ( 'ANY', '', #48, .NOT_KNOWN. ) ;
#116 = APPROVAL_PERSON_ORGANIZATION ( #47, #132, #41 ) ;
#117 = VERTEX_POINT ( 'NONE', #52 ) ;
#118 = DIRECTION ( 'NONE',  ( 0.0000000000000000000, 0.0000000000000000000, 1.000000000000000000 ) ) ;
#119 = DIRECTION ( 'NONE',  ( -0.0000000000000000000, -0.0000000000000000000, -1.000000000000000000 ) ) ;
#120 = PERSON_AND_ORGANIZATION ( #46, #98 ) ;
#121 = APPROVAL ( #139, 'UNSPECIFIED' ) ;
#122 = DIRECTION ( 'NONE',  ( 1.000000000000000000, 0.0000000000000000000, 0.0000000000000000000 ) ) ;
#123 = CARTESIAN_POINT ( 'NONE',  ( 25.00000000000000000, 3.061616997868383000E-015, 0.2000000000000000100 ) ) ;
#124 =( NAMED_UNIT ( * ) SI_UNIT ( $, .STERADIAN. ) SOLID_ANGLE_UNIT ( ) );
#125 = APPROVAL_ROLE ( '' ) ;
#126 = APPLICATION_PROTOCOL_DEFINITION ( 'international standard', 'config_control_design', 1994, #17 ) ;
#127 = DATE_AND_TIME ( #97, #150 ) ;
#128 = ORIENTED_EDGE ( 'NONE', *, *, #11, .F. ) ;
#129 = CC_DESIGN_APPROVAL ( #132, ( #173 ) ) ;
#130 = UNCERTAINTY_MEASURE_WITH_UNIT (LENGTH_MEASURE( 1.000000000000000100E-005 ), #96, 'distance_accuracy_value', 'NONE');
#131 = EDGE_CURVE ( 'NONE', #106, #58, #35, .T. ) ;
#132 = APPROVAL ( #100, 'UNSPECIFIED' ) ;
#133 = CARTESIAN_POINT ( 'NONE',  ( -25.00000000000000000, 0.0000000000000000000, 0.2000000000000000100 ) ) ;
#134 = EDGE_CURVE ( 'NONE', #113, #117, #7, .T. ) ;
#135 = DIRECTION ( 'NONE',  ( 0.0000000000000000000, 0.0000000000000000000, 1.000000000000000000 ) ) ;
#136 = ADVANCED_FACE ( 'NONE', ( #32 ), #60, .T. ) ;
#137 = CARTESIAN_POINT ( 'NONE',  ( 0.0000000000000000000, 0.0000000000000000000, 0.2000000000000000100 ) ) ;
#138 = DIRECTION ( 'NONE',  ( 1.000000000000000000, 0.0000000000000000000, 0.0000000000000000000 ) ) ;
#139 = APPROVAL_STATUS ( 'not_yet_approved' ) ;
#140 = DATE_AND_TIME ( #174, #142 ) ;
#141 = CIRCLE ( 'NONE', #170, 25.00000000000000000 ) ;
#142 = LOCAL_TIME ( 14, 35, 8.000000000000000000, #43 ) ;
#143 = DATE_AND_TIME ( #74, #84 ) ;
#144 = ORIENTED_EDGE ( 'NONE', *, *, #44, .F. ) ;
#145 = EDGE_CURVE ( 'NONE', #58, #106, #14, .T. ) ;
#146 = DIRECTION ( 'NONE',  ( -1.000000000000000000, 0.0000000000000000000, 0.0000000000000000000 ) ) ;
#147 = DIRECTION ( 'NONE',  ( 0.0000000000000000000, 0.0000000000000000000, 1.000000000000000000 ) ) ;
#148 = CARTESIAN_POINT ( 'NONE',  ( 0.0000000000000000000, 0.0000000000000000000, 0.2000000000000000100 ) ) ;
#149 = ADVANCED_FACE ( 'NONE', ( #107 ), #67, .T. ) ;
#150 = LOCAL_TIME ( 14, 35, 8.000000000000000000, #114 ) ;
#151 = LINE ( 'NONE', #26, #34 ) ;
#152 = APPROVAL_ROLE ( '' ) ;
#153 = APPLICATION_PROTOCOL_DEFINITION ( 'international standard', 'config_control_design', 1994, #112 ) ;
#154 = PERSON_AND_ORGANIZATION ( #46, #98 ) ;
#155 = ORIENTED_EDGE ( 'NONE', *, *, #134, .T. ) ;
#156 = LOCAL_TIME ( 14, 35, 8.000000000000000000, #21 ) ;
#157 = EDGE_LOOP ( 'NONE', ( #128, #172, #91, #155 ) ) ;
#158 = CARTESIAN_POINT ( 'NONE',  ( 0.0000000000000000000, 0.0000000000000000000, 0.2000000000000000100 ) ) ;
#159 = CARTESIAN_POINT ( 'NONE',  ( 0.0000000000000000000, 0.0000000000000000000, 0.0000000000000000000 ) ) ;
#160 = DIRECTION ( 'NONE',  ( 0.0000000000000000000, 0.0000000000000000000, 1.000000000000000000 ) ) ;
#161 = AXIS2_PLACEMENT_3D ( 'NONE', #159, #135, #78 ) ;
#162 = MECHANICAL_CONTEXT ( 'NONE', #17, 'mechanical' ) ;
#163 = LINE ( 'NONE', #123, #101 ) ;
#164 = DATE_TIME_ROLE ( 'classification_date' ) ;
#165 = CARTESIAN_POINT ( 'NONE',  ( 0.0000000000000000000, 0.0000000000000000000, 0.0000000000000000000 ) ) ;
#166 = PERSON_AND_ORGANIZATION_ROLE ( 'design_supplier' ) ;
#167 = LOCAL_TIME ( 14, 35, 8.000000000000000000, #103 ) ;
#168 = EDGE_LOOP ( 'NONE', ( #110, #104 ) ) ;
#169 = FACE_OUTER_BOUND ( 'NONE', #168, .T. ) ;
#170 = AXIS2_PLACEMENT_3D ( 'NONE', #93, #59, #122 ) ;
#171 = PERSON_AND_ORGANIZATION ( #46, #98 ) ;
#172 = ORIENTED_EDGE ( 'NONE', *, *, #131, .F. ) ;
#173 = SECURITY_CLASSIFICATION ( '', '', #80 ) ;
#174 = CALENDAR_DATE ( 2017, 31, 1 ) ;
#175 = CC_DESIGN_PERSON_AND_ORGANIZATION_ASSIGNMENT ( #55, #65, ( #48 ) ) ;
ENDSEC;
END-ISO-10303-21;
