ISO-10303-21;
HEADER;
FILE_DESCRIPTION (( 'STEP AP203' ),
    '1' );
FILE_NAME ('Web Model 68422.STEP',
    '2017-01-31T20:01:43',
    ( '' ),
    ( '' ),
    'SwSTEP 2.0',
    'SolidWorks 2016',
    '' );
FILE_SCHEMA (( 'CONFIG_CONTROL_DESIGN' ));
ENDSEC;

DATA;
#1 = ORIENTED_EDGE ( 'NONE', *, *, #141, .F. ) ;
#2 = UNCERTAINTY_MEASURE_WITH_UNIT (LENGTH_MEASURE( 1.000000000000000100E-005 ), #125, 'distance_accuracy_value', 'NONE');
#3 = COORDINATED_UNIVERSAL_TIME_OFFSET ( 5, 0, .BEHIND. ) ;
#4 = PRODUCT_RELATED_PRODUCT_CATEGORY ( 'detail', '', ( #94 ) ) ;
#5 = DIRECTION ( 'NONE',  ( 1.000000000000000000, 0.0000000000000000000, 0.0000000000000000000 ) ) ;
#6 = CARTESIAN_POINT ( 'NONE',  ( 0.0000000000000000000, 0.0000000000000000000, 3.000000000000000000 ) ) ;
#7 = SECURITY_CLASSIFICATION ( '', '', #42 ) ;
#8 = APPLICATION_PROTOCOL_DEFINITION ( 'international standard', 'config_control_design', 1994, #132 ) ;
#9 = EDGE_LOOP ( 'NONE', ( #166, #53 ) ) ;
#10 = PERSON_AND_ORGANIZATION_ROLE ( 'creator' ) ;
#11 = CALENDAR_DATE ( 2017, 31, 1 ) ;
#12 = EDGE_CURVE ( 'NONE', #31, #63, #72, .T. ) ;
#13 = ORIENTED_EDGE ( 'NONE', *, *, #12, .T. ) ;
#14 = LOCAL_TIME ( 15, 1, 43.00000000000000000, #30 ) ;
#15 =( GEOMETRIC_REPRESENTATION_CONTEXT ( 3 ) GLOBAL_UNCERTAINTY_ASSIGNED_CONTEXT ( ( #2 ) ) GLOBAL_UNIT_ASSIGNED_CONTEXT ( ( #125, #70, #29 ) ) REPRESENTATION_CONTEXT ( 'NONE', 'WORKASPACE' ) );
#16 = ORIENTED_EDGE ( 'NONE', *, *, #26, .T. ) ;
#17 = VERTEX_POINT ( 'NONE', #122 ) ;
#18 = AXIS2_PLACEMENT_3D ( 'NONE', #21, #147, #20 ) ;
#19 = PERSON_AND_ORGANIZATION ( #116, #129 ) ;
#20 = DIRECTION ( 'NONE',  ( 1.000000000000000000, 0.0000000000000000000, 0.0000000000000000000 ) ) ;
#21 = CARTESIAN_POINT ( 'NONE',  ( 0.0000000000000000000, 0.0000000000000000000, 3.000000000000000000 ) ) ;
#22 = CARTESIAN_POINT ( 'NONE',  ( 0.0000000000000000000, 0.0000000000000000000, 0.0000000000000000000 ) ) ;
#23 = CC_DESIGN_APPROVAL ( #57, ( #7 ) ) ;
#24 = PLANE ( 'NONE',  #41 ) ;
#25 = LOCAL_TIME ( 15, 1, 43.00000000000000000, #128 ) ;
#26 = EDGE_CURVE ( 'NONE', #71, #17, #50, .T. ) ;
#27 = ORIENTED_EDGE ( 'NONE', *, *, #81, .T. ) ;
#28 = APPROVAL_STATUS ( 'not_yet_approved' ) ;
#29 =( NAMED_UNIT ( * ) SI_UNIT ( $, .STERADIAN. ) SOLID_ANGLE_UNIT ( ) );
#30 = COORDINATED_UNIVERSAL_TIME_OFFSET ( 5, 0, .BEHIND. ) ;
#31 = VERTEX_POINT ( 'NONE', #95 ) ;
#32 = ORIENTED_EDGE ( 'NONE', *, *, #81, .F. ) ;
#33 = DIRECTION ( 'NONE',  ( 0.0000000000000000000, 0.0000000000000000000, 1.000000000000000000 ) ) ;
#34 = CARTESIAN_POINT ( 'NONE',  ( 0.0000000000000000000, 0.0000000000000000000, 3.000000000000000000 ) ) ;
#35 = CC_DESIGN_PERSON_AND_ORGANIZATION_ASSIGNMENT ( #61, #85, ( #7 ) ) ;
#36 = DIRECTION ( 'NONE',  ( -1.000000000000000000, 0.0000000000000000000, 0.0000000000000000000 ) ) ;
#37 = DIRECTION ( 'NONE',  ( -0.0000000000000000000, -0.0000000000000000000, -1.000000000000000000 ) ) ;
#38 = MECHANICAL_CONTEXT ( 'NONE', #107, 'mechanical' ) ;
#39 = DIRECTION ( 'NONE',  ( 1.000000000000000000, 0.0000000000000000000, 0.0000000000000000000 ) ) ;
#40 = APPLICATION_PROTOCOL_DEFINITION ( 'international standard', 'config_control_design', 1994, #107 ) ;
#41 = AXIS2_PLACEMENT_3D ( 'NONE', #175, #106, #108 ) ;
#42 = SECURITY_CLASSIFICATION_LEVEL ( 'unclassified' ) ;
#43 = APPROVAL_PERSON_ORGANIZATION ( #120, #164, #149 ) ;
#44 = AXIS2_PLACEMENT_3D ( 'NONE', #117, #158, #36 ) ;
#45 = CALENDAR_DATE ( 2017, 31, 1 ) ;
#46 = PERSON_AND_ORGANIZATION ( #116, #129 ) ;
#47 = EDGE_LOOP ( 'NONE', ( #112, #56, #16, #32 ) ) ;
#48 = CARTESIAN_POINT ( 'NONE',  ( 12.50000000000000000, 1.530808498934191500E-015, 0.0000000000000000000 ) ) ;
#49 = APPROVAL_DATE_TIME ( #74, #143 ) ;
#50 = CIRCLE ( 'NONE', #135, 12.50000000000000000 ) ;
#51 = DATE_TIME_ROLE ( 'classification_date' ) ;
#52 = EDGE_CURVE ( 'NONE', #17, #71, #121, .T. ) ;
#53 = ORIENTED_EDGE ( 'NONE', *, *, #26, .F. ) ;
#54 = DATE_TIME_ROLE ( 'creation_date' ) ;
#55 = APPROVAL_PERSON_ORGANIZATION ( #98, #143, #133 ) ;
#56 = ORIENTED_EDGE ( 'NONE', *, *, #141, .T. ) ;
#57 = APPROVAL ( #124, 'UNSPECIFIED' ) ;
#58 = AXIS2_PLACEMENT_3D ( 'NONE', #6, #161, #173 ) ;
#59 = PERSON_AND_ORGANIZATION ( #116, #129 ) ;
#60 = COORDINATED_UNIVERSAL_TIME_OFFSET ( 5, 0, .BEHIND. ) ;
#61 = PERSON_AND_ORGANIZATION ( #116, #129 ) ;
#62 = FACE_OUTER_BOUND ( 'NONE', #114, .T. ) ;
#63 = VERTEX_POINT ( 'NONE', #77 ) ;
#64 = DIRECTION ( 'NONE',  ( 0.0000000000000000000, 0.0000000000000000000, 1.000000000000000000 ) ) ;
#65 = CARTESIAN_POINT ( 'NONE',  ( 0.0000000000000000000, 0.0000000000000000000, 0.0000000000000000000 ) ) ;
#66 = DIRECTION ( 'NONE',  ( 1.000000000000000000, 0.0000000000000000000, 0.0000000000000000000 ) ) ;
#67 = PLANE ( 'NONE',  #154 ) ;
#68 = CALENDAR_DATE ( 2017, 31, 1 ) ;
#69 = VECTOR ( 'NONE', #37, 1000.000000000000000 ) ;
#70 =( NAMED_UNIT ( * ) PLANE_ANGLE_UNIT ( ) SI_UNIT ( $, .RADIAN. ) );
#71 = VERTEX_POINT ( 'NONE', #48 ) ;
#72 = CIRCLE ( 'NONE', #18, 12.50000000000000000 ) ;
#73 = PRODUCT_DEFINITION_SHAPE ( 'NONE', 'NONE',  #115 ) ;
#74 = DATE_AND_TIME ( #68, #84 ) ;
#75 = FACE_OUTER_BOUND ( 'NONE', #163, .T. ) ;
#76 = DIRECTION ( 'NONE',  ( -0.0000000000000000000, -0.0000000000000000000, -1.000000000000000000 ) ) ;
#77 = CARTESIAN_POINT ( 'NONE',  ( 12.50000000000000000, 1.530808498934191500E-015, 3.000000000000000000 ) ) ;
#78 = PERSON_AND_ORGANIZATION ( #116, #129 ) ;
#79 = ORIENTED_EDGE ( 'NONE', *, *, #52, .T. ) ;
#80 = CARTESIAN_POINT ( 'NONE',  ( 0.0000000000000000000, 0.0000000000000000000, 0.0000000000000000000 ) ) ;
#81 = EDGE_CURVE ( 'NONE', #31, #17, #160, .T. ) ;
#82 = COORDINATED_UNIVERSAL_TIME_OFFSET ( 5, 0, .BEHIND. ) ;
#83 = AXIS2_PLACEMENT_3D ( 'NONE', #80, #136, #39 ) ;
#84 = LOCAL_TIME ( 15, 1, 43.00000000000000000, #60 ) ;
#85 = PERSON_AND_ORGANIZATION_ROLE ( 'classification_officer' ) ;
#86 = ADVANCED_FACE ( 'NONE', ( #87 ), #162, .T. ) ;
#87 = FACE_OUTER_BOUND ( 'NONE', #47, .T. ) ;
#88 = CLOSED_SHELL ( 'NONE', ( #86, #96, #146, #105 ) ) ;
#89 = SHAPE_DEFINITION_REPRESENTATION ( #73, #104 ) ;
#90 = VECTOR ( 'NONE', #76, 1000.000000000000000 ) ;
#91 = AXIS2_PLACEMENT_3D ( 'NONE', #144, #33, #66 ) ;
#92 = EDGE_CURVE ( 'NONE', #63, #31, #93, .T. ) ;
#93 = CIRCLE ( 'NONE', #127, 12.50000000000000000 ) ;
#94 = PRODUCT ( 'Web Model 68422', 'Web Model 68422', '', ( #38 ) ) ;
#95 = CARTESIAN_POINT ( 'NONE',  ( -12.50000000000000000, 0.0000000000000000000, 3.000000000000000000 ) ) ;
#96 = ADVANCED_FACE ( 'NONE', ( #75 ), #111, .T. ) ;
#97 = PERSON_AND_ORGANIZATION_ROLE ( 'design_owner' ) ;
#98 = PERSON_AND_ORGANIZATION ( #116, #129 ) ;
#99 = ORIENTED_EDGE ( 'NONE', *, *, #92, .T. ) ;
#100 = DATE_AND_TIME ( #45, #142 ) ;
#101 = LINE ( 'NONE', #102, #69 ) ;
#102 = CARTESIAN_POINT ( 'NONE',  ( 12.50000000000000000, 1.530808498934191500E-015, 3.000000000000000000 ) ) ;
#103 = CC_DESIGN_PERSON_AND_ORGANIZATION_ASSIGNMENT ( #78, #97, ( #94 ) ) ;
#104 = ADVANCED_BREP_SHAPE_REPRESENTATION ( 'Web Model 68422', ( #159, #83 ), #15 ) ;
#105 = ADVANCED_FACE ( 'NONE', ( #131 ), #67, .F. ) ;
#106 = DIRECTION ( 'NONE',  ( 0.0000000000000000000, 0.0000000000000000000, 1.000000000000000000 ) ) ;
#107 = APPLICATION_CONTEXT ( 'configuration controlled 3d designs of mechanical parts and assemblies' ) ;
#108 = DIRECTION ( 'NONE',  ( 1.000000000000000000, 0.0000000000000000000, -0.0000000000000000000 ) ) ;
#109 = PERSON_AND_ORGANIZATION_ROLE ( 'design_supplier' ) ;
#110 = LOCAL_TIME ( 15, 1, 43.00000000000000000, #3 ) ;
#111 = CYLINDRICAL_SURFACE ( 'NONE', #58, 12.50000000000000000 ) ;
#112 = ORIENTED_EDGE ( 'NONE', *, *, #92, .F. ) ;
#113 = CC_DESIGN_PERSON_AND_ORGANIZATION_ASSIGNMENT ( #19, #10, ( #115 ) ) ;
#114 = EDGE_LOOP ( 'NONE', ( #13, #99 ) ) ;
#115 = PRODUCT_DEFINITION ( 'UNKNOWN', '', #155, #153 ) ;
#116 = PERSON ( 'UNSPECIFIED', 'UNSPECIFIED', 'UNSPECIFIED', ('UNSPECIFIED'), ('UNSPECIFIED'), ('UNSPECIFIED') ) ;
#117 = CARTESIAN_POINT ( 'NONE',  ( 0.0000000000000000000, 0.0000000000000000000, 3.000000000000000000 ) ) ;
#118 = DIRECTION ( 'NONE',  ( 0.0000000000000000000, 0.0000000000000000000, 1.000000000000000000 ) ) ;
#119 = PERSON_AND_ORGANIZATION ( #116, #129 ) ;
#120 = PERSON_AND_ORGANIZATION ( #116, #129 ) ;
#121 = CIRCLE ( 'NONE', #91, 12.50000000000000000 ) ;
#122 = CARTESIAN_POINT ( 'NONE',  ( -12.50000000000000000, 0.0000000000000000000, 0.0000000000000000000 ) ) ;
#123 = DIRECTION ( 'NONE',  ( 1.000000000000000000, 0.0000000000000000000, -0.0000000000000000000 ) ) ;
#124 = APPROVAL_STATUS ( 'not_yet_approved' ) ;
#125 =( LENGTH_UNIT ( ) NAMED_UNIT ( * ) SI_UNIT ( .MILLI., .METRE. ) );
#126 = CC_DESIGN_APPROVAL ( #143, ( #115 ) ) ;
#127 = AXIS2_PLACEMENT_3D ( 'NONE', #34, #172, #145 ) ;
#128 = COORDINATED_UNIVERSAL_TIME_OFFSET ( 5, 0, .BEHIND. ) ;
#129 = ORGANIZATION ( 'UNSPECIFIED', 'UNSPECIFIED', '' ) ;
#130 = CARTESIAN_POINT ( 'NONE',  ( -12.50000000000000000, 0.0000000000000000000, 3.000000000000000000 ) ) ;
#131 = FACE_OUTER_BOUND ( 'NONE', #9, .T. ) ;
#132 = APPLICATION_CONTEXT ( 'configuration controlled 3d designs of mechanical parts and assemblies' ) ;
#133 = APPROVAL_ROLE ( '' ) ;
#134 = PERSON_AND_ORGANIZATION_ROLE ( 'creator' ) ;
#135 = AXIS2_PLACEMENT_3D ( 'NONE', #65, #64, #5 ) ;
#136 = DIRECTION ( 'NONE',  ( 0.0000000000000000000, 0.0000000000000000000, 1.000000000000000000 ) ) ;
#137 = DATE_AND_TIME ( #174, #110 ) ;
#138 = ORIENTED_EDGE ( 'NONE', *, *, #12, .F. ) ;
#139 = CC_DESIGN_DATE_AND_TIME_ASSIGNMENT ( #156, #54, ( #115 ) ) ;
#140 = CC_DESIGN_DATE_AND_TIME_ASSIGNMENT ( #165, #51, ( #7 ) ) ;
#141 = EDGE_CURVE ( 'NONE', #63, #71, #101, .T. ) ;
#142 = LOCAL_TIME ( 15, 1, 43.00000000000000000, #82 ) ;
#143 = APPROVAL ( #28, 'UNSPECIFIED' ) ;
#144 = CARTESIAN_POINT ( 'NONE',  ( 0.0000000000000000000, 0.0000000000000000000, 0.0000000000000000000 ) ) ;
#145 = DIRECTION ( 'NONE',  ( 1.000000000000000000, 0.0000000000000000000, 0.0000000000000000000 ) ) ;
#146 = ADVANCED_FACE ( 'NONE', ( #62 ), #24, .T. ) ;
#147 = DIRECTION ( 'NONE',  ( 0.0000000000000000000, 0.0000000000000000000, 1.000000000000000000 ) ) ;
#148 = APPROVAL_ROLE ( '' ) ;
#149 = APPROVAL_ROLE ( '' ) ;
#150 = CC_DESIGN_SECURITY_CLASSIFICATION ( #7, ( #155 ) ) ;
#151 = APPROVAL_STATUS ( 'not_yet_approved' ) ;
#152 = CC_DESIGN_APPROVAL ( #164, ( #155 ) ) ;
#153 = DESIGN_CONTEXT ( 'detailed design', #132, 'design' ) ;
#154 = AXIS2_PLACEMENT_3D ( 'NONE', #22, #118, #123 ) ;
#155 = PRODUCT_DEFINITION_FORMATION_WITH_SPECIFIED_SOURCE ( 'ANY', '', #94, .NOT_KNOWN. ) ;
#156 = DATE_AND_TIME ( #11, #14 ) ;
#157 = APPROVAL_PERSON_ORGANIZATION ( #59, #57, #148 ) ;
#158 = DIRECTION ( 'NONE',  ( -0.0000000000000000000, -0.0000000000000000000, -1.000000000000000000 ) ) ;
#159 = MANIFOLD_SOLID_BREP ( 'Extrude1', #88 ) ;
#160 = LINE ( 'NONE', #130, #90 ) ;
#161 = DIRECTION ( 'NONE',  ( -0.0000000000000000000, -0.0000000000000000000, -1.000000000000000000 ) ) ;
#162 = CYLINDRICAL_SURFACE ( 'NONE', #44, 12.50000000000000000 ) ;
#163 = EDGE_LOOP ( 'NONE', ( #1, #138, #27, #79 ) ) ;
#164 = APPROVAL ( #151, 'UNSPECIFIED' ) ;
#165 = DATE_AND_TIME ( #171, #25 ) ;
#166 = ORIENTED_EDGE ( 'NONE', *, *, #52, .F. ) ;
#167 = APPROVAL_DATE_TIME ( #100, #57 ) ;
#168 = APPROVAL_DATE_TIME ( #137, #164 ) ;
#169 = CC_DESIGN_PERSON_AND_ORGANIZATION_ASSIGNMENT ( #119, #109, ( #155 ) ) ;
#170 = CC_DESIGN_PERSON_AND_ORGANIZATION_ASSIGNMENT ( #46, #134, ( #155 ) ) ;
#171 = CALENDAR_DATE ( 2017, 31, 1 ) ;
#172 = DIRECTION ( 'NONE',  ( 0.0000000000000000000, 0.0000000000000000000, 1.000000000000000000 ) ) ;
#173 = DIRECTION ( 'NONE',  ( -1.000000000000000000, 0.0000000000000000000, 0.0000000000000000000 ) ) ;
#174 = CALENDAR_DATE ( 2017, 31, 1 ) ;
#175 = CARTESIAN_POINT ( 'NONE',  ( 0.0000000000000000000, 0.0000000000000000000, 3.000000000000000000 ) ) ;
ENDSEC;
END-ISO-10303-21;
