ISO-10303-21;
HEADER;
FILE_DESCRIPTION (( 'STEP AP203' ),
    '1' );
FILE_NAME ('Web Model 64402MX_43747.step',
    '2017-10-30T13:10:56',
    ( '' ),
    ( '' ),
    'SwSTEP 2.0',
    'SolidWorks 2016',
    '' );
FILE_SCHEMA (( 'CONFIG_CONTROL_DESIGN' ));
ENDSEC;

DATA;
#1 = EDGE_CURVE ( 'NONE', #197, #190, #191, .T. ) ;
#2 = CARTESIAN_POINT ( 'NONE',  ( 0.0000000000000000000, 0.0000000000000000000, -4.750000000000000000 ) ) ;
#3 = ORIENTED_EDGE ( 'NONE', *, *, #90, .T. ) ;
#4 = ADVANCED_FACE ( 'NONE', ( #30 ), #206, .F. ) ;
#5 = EDGE_CURVE ( 'NONE', #214, #125, #132, .T. ) ;
#6 = MANIFOLD_SOLID_BREP ( 'Boss-Extrude1', #135 ) ;
#7 = COORDINATED_UNIVERSAL_TIME_OFFSET ( 5, 0, .BEHIND. ) ;
#8 = VECTOR ( 'NONE', #227, 1000.000000000000000 ) ;
#9 = ORIENTED_EDGE ( 'NONE', *, *, #5, .T. ) ;
#10 = CC_DESIGN_APPROVAL ( #55, ( #171 ) ) ;
#11 = PERSON_AND_ORGANIZATION_ROLE ( 'creator' ) ;
#12 = PERSON_AND_ORGANIZATION_ROLE ( 'design_supplier' ) ;
#13 = ORIENTED_EDGE ( 'NONE', *, *, #60, .T. ) ;
#14 = PLANE ( 'NONE',  #72 ) ;
#15 = CARTESIAN_POINT ( 'NONE',  ( 12.49999999999999800, 12.50000000000000400, 4.750000000000000000 ) ) ;
#16 = EDGE_LOOP ( 'NONE', ( #123, #19, #66, #237 ) ) ;
#17 = EDGE_CURVE ( 'NONE', #154, #104, #172, .T. ) ;
#18 = CARTESIAN_POINT ( 'NONE',  ( 0.0000000000000000000, 0.0000000000000000000, 0.0000000000000000000 ) ) ;
#19 = ORIENTED_EDGE ( 'NONE', *, *, #210, .F. ) ;
#20 = CALENDAR_DATE ( 2017, 30, 10 ) ;
#21 = ORIENTED_EDGE ( 'NONE', *, *, #1, .T. ) ;
#22 = DIRECTION ( 'NONE',  ( -1.000000000000000000, -1.387778780781445700E-016, 0.0000000000000000000 ) ) ;
#23 = CC_DESIGN_SECURITY_CLASSIFICATION ( #171, ( #195 ) ) ;
#24 = APPROVAL_DATE_TIME ( #93, #55 ) ;
#25 = PERSON ( 'UNSPECIFIED', 'UNSPECIFIED', 'UNSPECIFIED', ('UNSPECIFIED'), ('UNSPECIFIED'), ('UNSPECIFIED') ) ;
#26 = DESIGN_CONTEXT ( 'detailed design', #189, 'design' ) ;
#27 = ORIENTED_EDGE ( 'NONE', *, *, #168, .F. ) ;
#28 = COORDINATED_UNIVERSAL_TIME_OFFSET ( 5, 0, .BEHIND. ) ;
#29 = DIRECTION ( 'NONE',  ( 1.387778780781445700E-016, -1.000000000000000000, 0.0000000000000000000 ) ) ;
#30 = FACE_OUTER_BOUND ( 'NONE', #113, .T. ) ;
#31 = APPROVAL_STATUS ( 'not_yet_approved' ) ;
#32 = LINE ( 'NONE', #162, #185 ) ;
#33 = COORDINATED_UNIVERSAL_TIME_OFFSET ( 5, 0, .BEHIND. ) ;
#34 = DIRECTION ( 'NONE',  ( -0.0000000000000000000, -0.0000000000000000000, -1.000000000000000000 ) ) ;
#35 = DIRECTION ( 'NONE',  ( 0.0000000000000000000, 0.0000000000000000000, 1.000000000000000000 ) ) ;
#36 = APPROVAL_PERSON_ORGANIZATION ( #225, #118, #194 ) ;
#37 = ADVANCED_BREP_SHAPE_REPRESENTATION ( 'Web Model 64402MX_43747', ( #6, #218 ), #187 ) ;
#38 =( NAMED_UNIT ( * ) PLANE_ANGLE_UNIT ( ) SI_UNIT ( $, .RADIAN. ) );
#39 = CC_DESIGN_PERSON_AND_ORGANIZATION_ASSIGNMENT ( #203, #12, ( #195 ) ) ;
#40 = LINE ( 'NONE', #45, #180 ) ;
#41 = CARTESIAN_POINT ( 'NONE',  ( 12.49999999999999800, -12.49999999999999600, 4.750000000000000000 ) ) ;
#42 = PERSON_AND_ORGANIZATION ( #25, #134 ) ;
#43 = AXIS2_PLACEMENT_3D ( 'NONE', #178, #181, #215 ) ;
#44 = APPLICATION_PROTOCOL_DEFINITION ( 'international standard', 'config_control_design', 1994, #124 ) ;
#45 = CARTESIAN_POINT ( 'NONE',  ( -12.50000000000000200, -12.50000000000000000, 4.750000000000000000 ) ) ;
#46 = ORIENTED_EDGE ( 'NONE', *, *, #114, .F. ) ;
#47 = AXIS2_PLACEMENT_3D ( 'NONE', #217, #143, #49 ) ;
#48 = CC_DESIGN_PERSON_AND_ORGANIZATION_ASSIGNMENT ( #42, #110, ( #195 ) ) ;
#49 = DIRECTION ( 'NONE',  ( 0.0000000000000000000, 0.0000000000000000000, -1.000000000000000000 ) ) ;
#50 = CARTESIAN_POINT ( 'NONE',  ( 0.0000000000000000000, 0.0000000000000000000, 4.750000000000000000 ) ) ;
#51 = APPROVAL_ROLE ( '' ) ;
#52 = DIRECTION ( 'NONE',  ( -0.0000000000000000000, -1.000000000000000000, -0.0000000000000000000 ) ) ;
#53 = VECTOR ( 'NONE', #95, 1000.000000000000000 ) ;
#54 = ORIENTED_EDGE ( 'NONE', *, *, #90, .F. ) ;
#55 = APPROVAL ( #31, 'UNSPECIFIED' ) ;
#56 = ORIENTED_EDGE ( 'NONE', *, *, #17, .F. ) ;
#57 = PRODUCT ( 'Web Model 64402MX_43747', 'Web Model 64402MX_43747', '', ( #84 ) ) ;
#58 = LINE ( 'NONE', #117, #70 ) ;
#59 = PERSON_AND_ORGANIZATION ( #25, #134 ) ;
#60 = EDGE_CURVE ( 'NONE', #163, #154, #58, .T. ) ;
#61 = DIRECTION ( 'NONE',  ( 1.000000000000000000, 0.0000000000000000000, -0.0000000000000000000 ) ) ;
#62 = CC_DESIGN_PERSON_AND_ORGANIZATION_ASSIGNMENT ( #128, #11, ( #219 ) ) ;
#63 = PERSON_AND_ORGANIZATION_ROLE ( 'design_owner' ) ;
#64 = DIRECTION ( 'NONE',  ( -0.0000000000000000000, -0.0000000000000000000, -1.000000000000000000 ) ) ;
#65 = COORDINATED_UNIVERSAL_TIME_OFFSET ( 5, 0, .BEHIND. ) ;
#66 = ORIENTED_EDGE ( 'NONE', *, *, #60, .F. ) ;
#67 = CARTESIAN_POINT ( 'NONE',  ( -12.50000000000000200, 12.50000000000000000, -4.750000000000000000 ) ) ;
#68 = CARTESIAN_POINT ( 'NONE',  ( 12.49999999999999800, 12.50000000000000400, 4.750000000000000000 ) ) ;
#69 = CC_DESIGN_APPROVAL ( #118, ( #219 ) ) ;
#70 = VECTOR ( 'NONE', #73, 1000.000000000000000 ) ;
#71 = LOCAL_TIME ( 9, 10, 56.00000000000000000, #65 ) ;
#72 = AXIS2_PLACEMENT_3D ( 'NONE', #50, #198, #131 ) ;
#73 = DIRECTION ( 'NONE',  ( -0.0000000000000000000, -1.000000000000000000, -0.0000000000000000000 ) ) ;
#74 = DIRECTION ( 'NONE',  ( -1.000000000000000000, 0.0000000000000000000, 0.0000000000000000000 ) ) ;
#75 =( NAMED_UNIT ( * ) SI_UNIT ( $, .STERADIAN. ) SOLID_ANGLE_UNIT ( ) );
#76 = CC_DESIGN_DATE_AND_TIME_ASSIGNMENT ( #205, #177, ( #219 ) ) ;
#77 = PERSON_AND_ORGANIZATION ( #25, #134 ) ;
#78 = LINE ( 'NONE', #165, #236 ) ;
#79 = VECTOR ( 'NONE', #22, 1000.000000000000000 ) ;
#80 = COORDINATED_UNIVERSAL_TIME_OFFSET ( 5, 0, .BEHIND. ) ;
#81 = ORIENTED_EDGE ( 'NONE', *, *, #144, .F. ) ;
#82 = ADVANCED_FACE ( 'NONE', ( #232 ), #100, .F. ) ;
#83 = VERTEX_POINT ( 'NONE', #201 ) ;
#84 = MECHANICAL_CONTEXT ( 'NONE', #124, 'mechanical' ) ;
#85 = VECTOR ( 'NONE', #34, 1000.000000000000000 ) ;
#86 = CALENDAR_DATE ( 2017, 30, 10 ) ;
#87 = ADVANCED_FACE ( 'NONE', ( #204 ), #14, .T. ) ;
#88 = DIRECTION ( 'NONE',  ( -0.0000000000000000000, -0.0000000000000000000, -1.000000000000000000 ) ) ;
#89 = PERSON_AND_ORGANIZATION ( #25, #134 ) ;
#90 = EDGE_CURVE ( 'NONE', #83, #163, #127, .T. ) ;
#91 = CARTESIAN_POINT ( 'NONE',  ( 12.49999999999999800, -12.49999999999999600, 4.750000000000000000 ) ) ;
#92 = ORIENTED_EDGE ( 'NONE', *, *, #222, .F. ) ;
#93 = DATE_AND_TIME ( #122, #170 ) ;
#94 = PRODUCT_DEFINITION_SHAPE ( 'NONE', 'NONE',  #219 ) ;
#95 = DIRECTION ( 'NONE',  ( -1.000000000000000000, -1.387778780781445700E-016, 0.0000000000000000000 ) ) ;
#96 = APPROVAL_STATUS ( 'not_yet_approved' ) ;
#97 = LINE ( 'NONE', #15, #85 ) ;
#98 = DIRECTION ( 'NONE',  ( 0.0000000000000000000, 1.000000000000000000, 0.0000000000000000000 ) ) ;
#99 = CARTESIAN_POINT ( 'NONE',  ( 12.49999999999999800, -12.49999999999999600, 4.750000000000000000 ) ) ;
#100 = PLANE ( 'NONE',  #156 ) ;
#101 = CALENDAR_DATE ( 2017, 30, 10 ) ;
#102 = DIRECTION ( 'NONE',  ( 0.0000000000000000000, -0.0000000000000000000, 1.000000000000000000 ) ) ;
#103 = ADVANCED_FACE ( 'NONE', ( #211 ), #200, .F. ) ;
#104 = VERTEX_POINT ( 'NONE', #99 ) ;
#105 = LOCAL_TIME ( 9, 10, 56.00000000000000000, #7 ) ;
#106 = LINE ( 'NONE', #133, #229 ) ;
#107 = DATE_AND_TIME ( #101, #150 ) ;
#108 = ORIENTED_EDGE ( 'NONE', *, *, #114, .T. ) ;
#109 = CARTESIAN_POINT ( 'NONE',  ( -12.50000000000000200, 12.50000000000000000, 4.750000000000000000 ) ) ;
#110 = PERSON_AND_ORGANIZATION_ROLE ( 'creator' ) ;
#111 = ORIENTED_EDGE ( 'NONE', *, *, #183, .T. ) ;
#112 = CARTESIAN_POINT ( 'NONE',  ( 12.49999999999999800, -12.49999999999999600, -4.750000000000000000 ) ) ;
#113 = EDGE_LOOP ( 'NONE', ( #223, #234, #46, #157 ) ) ;
#114 = EDGE_CURVE ( 'NONE', #190, #214, #120, .T. ) ;
#115 = CARTESIAN_POINT ( 'NONE',  ( 12.49999999999999800, -12.49999999999999600, 4.750000000000000000 ) ) ;
#116 = ORIENTED_EDGE ( 'NONE', *, *, #183, .F. ) ;
#117 = CARTESIAN_POINT ( 'NONE',  ( -12.50000000000000200, -12.50000000000000000, 4.750000000000000000 ) ) ;
#118 = APPROVAL ( #138, 'UNSPECIFIED' ) ;
#119 = APPROVAL_DATE_TIME ( #107, #146 ) ;
#120 = LINE ( 'NONE', #112, #8 ) ;
#121 = ORIENTED_EDGE ( 'NONE', *, *, #168, .T. ) ;
#122 = CALENDAR_DATE ( 2017, 30, 10 ) ;
#123 = ORIENTED_EDGE ( 'NONE', *, *, #148, .T. ) ;
#124 = APPLICATION_CONTEXT ( 'configuration controlled 3d designs of mechanical parts and assemblies' ) ;
#125 = VERTEX_POINT ( 'NONE', #67 ) ;
#126 = PRODUCT_RELATED_PRODUCT_CATEGORY ( 'detail', '', ( #57 ) ) ;
#127 = LINE ( 'NONE', #68, #53 ) ;
#128 = PERSON_AND_ORGANIZATION ( #25, #134 ) ;
#129 = AXIS2_PLACEMENT_3D ( 'NONE', #115, #74, #35 ) ;
#130 = SHAPE_DEFINITION_REPRESENTATION ( #94, #37 ) ;
#131 = DIRECTION ( 'NONE',  ( 1.000000000000000000, 0.0000000000000000000, -0.0000000000000000000 ) ) ;
#132 = LINE ( 'NONE', #136, #79 ) ;
#133 = CARTESIAN_POINT ( 'NONE',  ( 12.49999999999999800, -12.49999999999999600, 4.750000000000000000 ) ) ;
#134 = ORGANIZATION ( 'UNSPECIFIED', 'UNSPECIFIED', '' ) ;
#135 = CLOSED_SHELL ( 'NONE', ( #155, #103, #174, #82, #87, #4 ) ) ;
#136 = CARTESIAN_POINT ( 'NONE',  ( 12.49999999999999800, 12.50000000000000400, -4.750000000000000000 ) ) ;
#137 = DIRECTION ( 'NONE',  ( 1.000000000000000000, 1.387778780781445700E-016, -0.0000000000000000000 ) ) ;
#138 = APPROVAL_STATUS ( 'not_yet_approved' ) ;
#139 = PERSON_AND_ORGANIZATION_ROLE ( 'classification_officer' ) ;
#140 = APPROVAL_DATE_TIME ( #221, #118 ) ;
#141 = VECTOR ( 'NONE', #137, 1000.000000000000000 ) ;
#142 = PLANE ( 'NONE',  #129 ) ;
#143 = DIRECTION ( 'NONE',  ( 1.000000000000000000, 0.0000000000000000000, 0.0000000000000000000 ) ) ;
#144 = EDGE_CURVE ( 'NONE', #104, #83, #106, .T. ) ;
#145 = CARTESIAN_POINT ( 'NONE',  ( 12.49999999999999800, 12.50000000000000400, 4.750000000000000000 ) ) ;
#146 = APPROVAL ( #96, 'UNSPECIFIED' ) ;
#147 = DIRECTION ( 'NONE',  ( -0.0000000000000000000, -0.0000000000000000000, -1.000000000000000000 ) ) ;
#148 = EDGE_CURVE ( 'NONE', #125, #197, #32, .T. ) ;
#149 = DIRECTION ( 'NONE',  ( 1.000000000000000000, 1.387778780781445700E-016, -0.0000000000000000000 ) ) ;
#150 = LOCAL_TIME ( 9, 10, 56.00000000000000000, #33 ) ;
#151 = EDGE_LOOP ( 'NONE', ( #9, #92, #54, #121 ) ) ;
#152 = DIRECTION ( 'NONE',  ( 1.000000000000000000, 0.0000000000000000000, 0.0000000000000000000 ) ) ;
#153 = CARTESIAN_POINT ( 'NONE',  ( -12.50000000000000200, -12.50000000000000000, -4.750000000000000000 ) ) ;
#154 = VERTEX_POINT ( 'NONE', #231 ) ;
#155 = ADVANCED_FACE ( 'NONE', ( #161 ), #196, .F. ) ;
#156 = AXIS2_PLACEMENT_3D ( 'NONE', #145, #29, #159 ) ;
#157 = ORIENTED_EDGE ( 'NONE', *, *, #1, .F. ) ;
#158 = CC_DESIGN_APPROVAL ( #146, ( #195 ) ) ;
#159 = DIRECTION ( 'NONE',  ( 1.000000000000000000, 1.387778780781445700E-016, 0.0000000000000000000 ) ) ;
#160 = AXIS2_PLACEMENT_3D ( 'NONE', #2, #102, #61 ) ;
#161 = FACE_OUTER_BOUND ( 'NONE', #16, .T. ) ;
#162 = CARTESIAN_POINT ( 'NONE',  ( -12.50000000000000200, -12.50000000000000000, -4.750000000000000000 ) ) ;
#163 = VERTEX_POINT ( 'NONE', #109 ) ;
#164 = DIRECTION ( 'NONE',  ( 0.0000000000000000000, 0.0000000000000000000, 1.000000000000000000 ) ) ;
#165 = CARTESIAN_POINT ( 'NONE',  ( -12.50000000000000200, 12.50000000000000000, 4.750000000000000000 ) ) ;
#166 = EDGE_LOOP ( 'NONE', ( #21, #116, #56, #212 ) ) ;
#167 = CARTESIAN_POINT ( 'NONE',  ( 12.49999999999999800, 12.50000000000000400, -4.750000000000000000 ) ) ;
#168 = EDGE_CURVE ( 'NONE', #83, #214, #97, .T. ) ;
#169 = CARTESIAN_POINT ( 'NONE',  ( 12.49999999999999800, -12.49999999999999600, -4.750000000000000000 ) ) ;
#170 = LOCAL_TIME ( 9, 10, 56.00000000000000000, #28 ) ;
#171 = SECURITY_CLASSIFICATION ( '', '', #228 ) ;
#172 = LINE ( 'NONE', #41, #216 ) ;
#173 = VECTOR ( 'NONE', #88, 1000.000000000000000 ) ;
#174 = ADVANCED_FACE ( 'NONE', ( #224 ), #142, .F. ) ;
#175 = APPROVAL_PERSON_ORGANIZATION ( #186, #146, #213 ) ;
#176 = APPROVAL_PERSON_ORGANIZATION ( #77, #55, #51 ) ;
#177 = DATE_TIME_ROLE ( 'creation_date' ) ;
#178 = CARTESIAN_POINT ( 'NONE',  ( 12.49999999999999800, -12.49999999999999600, 4.750000000000000000 ) ) ;
#179 = DATE_TIME_ROLE ( 'classification_date' ) ;
#180 = VECTOR ( 'NONE', #64, 1000.000000000000000 ) ;
#181 = DIRECTION ( 'NONE',  ( -1.387778780781445700E-016, 1.000000000000000000, 0.0000000000000000000 ) ) ;
#182 = UNCERTAINTY_MEASURE_WITH_UNIT (LENGTH_MEASURE( 1.000000000000000100E-005 ), #233, 'distance_accuracy_value', 'NONE');
#183 = EDGE_CURVE ( 'NONE', #104, #190, #220, .T. ) ;
#184 = CC_DESIGN_PERSON_AND_ORGANIZATION_ASSIGNMENT ( #59, #139, ( #171 ) ) ;
#185 = VECTOR ( 'NONE', #52, 1000.000000000000000 ) ;
#186 = PERSON_AND_ORGANIZATION ( #25, #134 ) ;
#187 =( GEOMETRIC_REPRESENTATION_CONTEXT ( 3 ) GLOBAL_UNCERTAINTY_ASSIGNED_CONTEXT ( ( #182 ) ) GLOBAL_UNIT_ASSIGNED_CONTEXT ( ( #233, #38, #75 ) ) REPRESENTATION_CONTEXT ( 'NONE', 'WORKASPACE' ) );
#188 = CALENDAR_DATE ( 2017, 30, 10 ) ;
#189 = APPLICATION_CONTEXT ( 'configuration controlled 3d designs of mechanical parts and assemblies' ) ;
#190 = VERTEX_POINT ( 'NONE', #192 ) ;
#191 = LINE ( 'NONE', #169, #141 ) ;
#192 = CARTESIAN_POINT ( 'NONE',  ( 12.49999999999999800, -12.49999999999999600, -4.750000000000000000 ) ) ;
#193 = DATE_AND_TIME ( #188, #105 ) ;
#194 = APPROVAL_ROLE ( '' ) ;
#195 = PRODUCT_DEFINITION_FORMATION_WITH_SPECIFIED_SOURCE ( 'ANY', '', #57, .NOT_KNOWN. ) ;
#196 = PLANE ( 'NONE',  #47 ) ;
#197 = VERTEX_POINT ( 'NONE', #153 ) ;
#198 = DIRECTION ( 'NONE',  ( 0.0000000000000000000, -0.0000000000000000000, 1.000000000000000000 ) ) ;
#199 = ORIENTED_EDGE ( 'NONE', *, *, #17, .T. ) ;
#200 = PLANE ( 'NONE',  #43 ) ;
#201 = CARTESIAN_POINT ( 'NONE',  ( 12.49999999999999800, 12.50000000000000400, 4.750000000000000000 ) ) ;
#202 = ORIENTED_EDGE ( 'NONE', *, *, #144, .T. ) ;
#203 = PERSON_AND_ORGANIZATION ( #25, #134 ) ;
#204 = FACE_OUTER_BOUND ( 'NONE', #235, .T. ) ;
#205 = DATE_AND_TIME ( #20, #71 ) ;
#206 = PLANE ( 'NONE',  #160 ) ;
#207 = CC_DESIGN_DATE_AND_TIME_ASSIGNMENT ( #193, #179, ( #171 ) ) ;
#208 = EDGE_LOOP ( 'NONE', ( #108, #27, #81, #111 ) ) ;
#209 = APPLICATION_PROTOCOL_DEFINITION ( 'international standard', 'config_control_design', 1994, #189 ) ;
#210 = EDGE_CURVE ( 'NONE', #154, #197, #40, .T. ) ;
#211 = FACE_OUTER_BOUND ( 'NONE', #166, .T. ) ;
#212 = ORIENTED_EDGE ( 'NONE', *, *, #210, .T. ) ;
#213 = APPROVAL_ROLE ( '' ) ;
#214 = VERTEX_POINT ( 'NONE', #167 ) ;
#215 = DIRECTION ( 'NONE',  ( -1.000000000000000000, -1.387778780781445700E-016, 0.0000000000000000000 ) ) ;
#216 = VECTOR ( 'NONE', #149, 1000.000000000000000 ) ;
#217 = CARTESIAN_POINT ( 'NONE',  ( -12.50000000000000200, -12.50000000000000000, 4.750000000000000000 ) ) ;
#218 = AXIS2_PLACEMENT_3D ( 'NONE', #18, #164, #152 ) ;
#219 = PRODUCT_DEFINITION ( 'UNKNOWN', '', #195, #26 ) ;
#220 = LINE ( 'NONE', #91, #173 ) ;
#221 = DATE_AND_TIME ( #86, #230 ) ;
#222 = EDGE_CURVE ( 'NONE', #163, #125, #78, .T. ) ;
#223 = ORIENTED_EDGE ( 'NONE', *, *, #148, .F. ) ;
#224 = FACE_OUTER_BOUND ( 'NONE', #208, .T. ) ;
#225 = PERSON_AND_ORGANIZATION ( #25, #134 ) ;
#226 = CC_DESIGN_PERSON_AND_ORGANIZATION_ASSIGNMENT ( #89, #63, ( #57 ) ) ;
#227 = DIRECTION ( 'NONE',  ( 0.0000000000000000000, 1.000000000000000000, 0.0000000000000000000 ) ) ;
#228 = SECURITY_CLASSIFICATION_LEVEL ( 'unclassified' ) ;
#229 = VECTOR ( 'NONE', #98, 1000.000000000000000 ) ;
#230 = LOCAL_TIME ( 9, 10, 56.00000000000000000, #80 ) ;
#231 = CARTESIAN_POINT ( 'NONE',  ( -12.50000000000000200, -12.50000000000000000, 4.750000000000000000 ) ) ;
#232 = FACE_OUTER_BOUND ( 'NONE', #151, .T. ) ;
#233 =( LENGTH_UNIT ( ) NAMED_UNIT ( * ) SI_UNIT ( .MILLI., .METRE. ) );
#234 = ORIENTED_EDGE ( 'NONE', *, *, #5, .F. ) ;
#235 = EDGE_LOOP ( 'NONE', ( #13, #199, #202, #3 ) ) ;
#236 = VECTOR ( 'NONE', #147, 1000.000000000000000 ) ;
#237 = ORIENTED_EDGE ( 'NONE', *, *, #222, .T. ) ;
ENDSEC;
END-ISO-10303-21;
