ISO-10303-21;
HEADER;
FILE_DESCRIPTION (( 'STEP AP214' ),
    '1' );
FILE_NAME ('4454-E0W.STEP',
    '2009-12-21T17:02:11',
    ( ' ' ),
    ( ' ' ),
    'SwSTEP 2.0',
    'SolidWorks 2009',
    '' );
FILE_SCHEMA (( 'AUTOMOTIVE_DESIGN' ));
ENDSEC;

DATA;
#1 =( NAMED_UNIT ( * ) PLANE_ANGLE_UNIT ( ) SI_UNIT ( $, .RADIAN. ) );
#2 = UNCERTAINTY_MEASURE_WITH_UNIT (LENGTH_MEASURE( 1.000000000000000100E-005 ), #20, 'distance_accuracy_value', 'NONE');
#3 =( NAMED_UNIT ( * ) SI_UNIT ( $, .STERADIAN. ) SOLID_ANGLE_UNIT ( ) );
#4 = EDGE_LOOP ( 'NONE', ( #36, #37, #13, #6, #7 ) ) ;
#5 = ADVANCED_FACE ( 'NONE', ( #31 ), #97, .T. ) ;
#6 = ORIENTED_EDGE ( 'NONE', *, *, #34, .F. ) ;
#7 = ORIENTED_EDGE ( 'NONE', *, *, #63, .F. ) ;
#8 = ORIENTED_EDGE ( 'NONE', *, *, #61, .T. ) ;
#9 = EDGE_CURVE ( 'NONE', #58, #59, #86, .T. ) ;
#10 = ORIENTED_EDGE ( 'NONE', *, *, #9, .F. ) ;
#11 = ADVANCED_FACE ( 'NONE', ( #147 ), #94, .T. ) ;
#12 = EDGE_CURVE ( 'NONE', #43, #58, #68, .T. ) ;
#13 = ORIENTED_EDGE ( 'NONE', *, *, #9, .T. ) ;
#14 = ORIENTED_EDGE ( 'NONE', *, *, #34, .T. ) ;
#15 = ADVANCED_FACE ( 'NONE', ( #85 ), #104, .F. ) ;
#16 = EDGE_LOOP ( 'NONE', ( #38, #47 ) ) ;
#17 = ORIENTED_EDGE ( 'NONE', *, *, #62, .T. ) ;
#18 = VERTEX_POINT ( 'NONE', #96 ) ;
#19 = EDGE_LOOP ( 'NONE', ( #52, #60, #17, #48 ) ) ;
#20 =( LENGTH_UNIT ( ) NAMED_UNIT ( * ) SI_UNIT ( .MILLI., .METRE. ) );
#21 = MECHANICAL_DESIGN_GEOMETRIC_PRESENTATION_REPRESENTATION (  '', ( #23 ), #98 ) ;
#22 = PRESENTATION_LAYER_ASSIGNMENT (  '', '', ( #23 ) ) ;
#23 = STYLED_ITEM ( 'NONE', ( #24 ), #5 ) ;
#24 = PRESENTATION_STYLE_ASSIGNMENT (( #25 ) ) ;
#25 = SURFACE_STYLE_USAGE ( .BOTH. , #26 ) ;
#26 = SURFACE_SIDE_STYLE ('',( #27 ) ) ;
#27 = SURFACE_STYLE_FILL_AREA ( #28 ) ;
#28 = FILL_AREA_STYLE ('',( #29 ) ) ;
#29 = FILL_AREA_STYLE_COLOUR ( '', #30 ) ;
#30 = COLOUR_RGB ( '',0.9568627450980391500, 0.9490196078431372100, 0.9607843137254902200 ) ;
#31 = FACE_OUTER_BOUND ( 'NONE', #49, .T. ) ;
#32 = ORIENTED_EDGE ( 'NONE', *, *, #33, .F. ) ;
#33 = EDGE_CURVE ( 'NONE', #53, #46, #76, .T. ) ;
#34 = EDGE_CURVE ( 'NONE', #64, #59, #102, .T. ) ;
#35 = EDGE_CURVE ( 'NONE', #53, #18, #141, .T. ) ;
#36 = ORIENTED_EDGE ( 'NONE', *, *, #45, .F. ) ;
#37 = ORIENTED_EDGE ( 'NONE', *, *, #12, .T. ) ;
#38 = ORIENTED_EDGE ( 'NONE', *, *, #55, .F. ) ;
#39 = ORIENTED_EDGE ( 'NONE', *, *, #62, .F. ) ;
#40 = CLOSED_SHELL ( 'NONE', ( #57, #50, #5, #11, #15 ) ) ;
#41 = ORIENTED_EDGE ( 'NONE', *, *, #35, .T. ) ;
#42 = EDGE_LOOP ( 'NONE', ( #54, #44, #32, #51, #10 ) ) ;
#43 = VERTEX_POINT ( 'NONE', #142 ) ;
#44 = ORIENTED_EDGE ( 'NONE', *, *, #45, .T. ) ;
#45 = EDGE_CURVE ( 'NONE', #43, #46, #122, .T. ) ;
#46 = VERTEX_POINT ( 'NONE', #118 ) ;
#47 = ORIENTED_EDGE ( 'NONE', *, *, #12, .F. ) ;
#48 = ORIENTED_EDGE ( 'NONE', *, *, #35, .F. ) ;
#49 = EDGE_LOOP ( 'NONE', ( #39, #14, #8, #41 ) ) ;
#50 = ADVANCED_FACE ( 'NONE', ( #117 ), #168, .T. ) ;
#51 = ORIENTED_EDGE ( 'NONE', *, *, #61, .F. ) ;
#52 = ORIENTED_EDGE ( 'NONE', *, *, #33, .T. ) ;
#53 = VERTEX_POINT ( 'NONE', #192 ) ;
#54 = ORIENTED_EDGE ( 'NONE', *, *, #55, .T. ) ;
#55 = EDGE_CURVE ( 'NONE', #58, #43, #191, .T. ) ;
#56 = MANIFOLD_SOLID_BREP ( 'NONE', #40 ) ;
#57 = ADVANCED_FACE ( 'NONE', ( #182 ), #223, .T. ) ;
#58 = VERTEX_POINT ( 'NONE', #180 ) ;
#59 = VERTEX_POINT ( 'NONE', #179 ) ;
#60 = ORIENTED_EDGE ( 'NONE', *, *, #63, .T. ) ;
#61 = EDGE_CURVE ( 'NONE', #59, #53, #161, .T. ) ;
#62 = EDGE_CURVE ( 'NONE', #64, #18, #206, .T. ) ;
#63 = EDGE_CURVE ( 'NONE', #46, #64, #196, .T. ) ;
#64 = VERTEX_POINT ( 'NONE', #199 ) ;
#65 = ADVANCED_BREP_SHAPE_REPRESENTATION ( '4454-E0W', ( #56, #261 ), #216 ) ;
#66 = DIRECTION ( 'NONE',  ( -0.0000000000000000000, -0.0000000000000000000, 1.000000000000000000 ) ) ;
#67 = AXIS2_PLACEMENT_3D ( 'NONE', #133, #66, #109 ) ;
#68 = CIRCLE ( 'NONE', #67, 25.39999999999999900 ) ;
#69 =( NAMED_UNIT ( * ) PLANE_ANGLE_UNIT ( ) SI_UNIT ( $, .RADIAN. ) );
#70 =( LENGTH_UNIT ( ) NAMED_UNIT ( * ) SI_UNIT ( .MILLI., .METRE. ) );
#71 = MECHANICAL_DESIGN_GEOMETRIC_PRESENTATION_REPRESENTATION (  '', ( #73 ), #229 ) ;
#72 = PRESENTATION_LAYER_ASSIGNMENT (  '', '', ( #73 ) ) ;
#73 = STYLED_ITEM ( 'NONE', ( #74 ), #50 ) ;
#74 = PRESENTATION_STYLE_ASSIGNMENT (( #75 ) ) ;
#75 = SURFACE_STYLE_USAGE ( .BOTH. , #112 ) ;
#76 = CIRCLE ( 'NONE', #125, 25.39999999999999900 ) ;
#77 = DIRECTION ( 'NONE',  ( 1.000000000000000000, 0.0000000000000000000, 0.0000000000000000000 ) ) ;
#78 = DIRECTION ( 'NONE',  ( 0.0000000000000000000, -0.0000000000000000000, 1.000000000000000000 ) ) ;
#79 = DIRECTION ( 'NONE',  ( -1.000000000000000000, 0.0000000000000000000, 0.0000000000000000000 ) ) ;
#80 = SURFACE_STYLE_USAGE ( .BOTH. , #81 ) ;
#81 = SURFACE_SIDE_STYLE ('',( #82 ) ) ;
#82 = SURFACE_STYLE_FILL_AREA ( #83 ) ;
#83 = FILL_AREA_STYLE ('',( #107 ) ) ;
#84 = SURFACE_SIDE_STYLE ('',( #127 ) ) ;
#85 = FACE_OUTER_BOUND ( 'NONE', #16, .T. ) ;
#86 = LINE ( 'NONE', #136, #154 ) ;
#87 =( NAMED_UNIT ( * ) SI_UNIT ( $, .STERADIAN. ) SOLID_ANGLE_UNIT ( ) );
#88 = UNCERTAINTY_MEASURE_WITH_UNIT (LENGTH_MEASURE( 1.000000000000000100E-005 ), #132, 'distance_accuracy_value', 'NONE');
#89 = MECHANICAL_DESIGN_GEOMETRIC_PRESENTATION_REPRESENTATION (  '', ( #129 ), #128 ) ;
#90 = PRESENTATION_LAYER_ASSIGNMENT (  '', '', ( #129 ) ) ;
#91 = DIRECTION ( 'NONE',  ( 1.000000000000000000, 0.0000000000000000000, 0.0000000000000000000 ) ) ;
#92 = DIRECTION ( 'NONE',  ( -0.0000000000000000000, -0.0000000000000000000, 1.000000000000000000 ) ) ;
#93 = AXIS2_PLACEMENT_3D ( 'NONE', #126, #92, #91 ) ;
#94 = CYLINDRICAL_SURFACE ( 'NONE', #156, 25.39999999999999900 ) ;
#95 = AXIS2_PLACEMENT_3D ( 'NONE', #105, #78, #77 ) ;
#96 = CARTESIAN_POINT ( 'NONE',  ( 0.0000000000000000000, 3.153361361092621000E-015, 4.844999999999995300 ) ) ;
#97 = SPHERICAL_SURFACE ( 'NONE', #149, 51.49999999999999300 ) ;
#98 =( GEOMETRIC_REPRESENTATION_CONTEXT ( 3 ) GLOBAL_UNCERTAINTY_ASSIGNED_CONTEXT ( ( #2 ) ) GLOBAL_UNIT_ASSIGNED_CONTEXT ( ( #20, #1, #3 ) ) REPRESENTATION_CONTEXT ( 'NONE', 'WORKASPACE' ) );
#99 =( NAMED_UNIT ( * ) PLANE_ANGLE_UNIT ( ) SI_UNIT ( $, .RADIAN. ) );
#100 = DIRECTION ( 'NONE',  ( 0.0000000000000000000, 1.000000000000000000, 0.0000000000000000000 ) ) ;
#101 = FILL_AREA_STYLE_COLOUR ( '', #153 ) ;
#102 = CIRCLE ( 'NONE', #93, 25.39999999999999900 ) ;
#103 = DIRECTION ( 'NONE',  ( 1.000000000000000000, 0.0000000000000000000, 0.0000000000000000000 ) ) ;
#104 = PLANE ( 'NONE',  #95 ) ;
#105 = CARTESIAN_POINT ( 'NONE',  ( 0.0000000000000000000, 1.780024122560677700E-015, -4.844999999999998900 ) ) ;
#106 =( GEOMETRIC_REPRESENTATION_CONTEXT ( 3 ) GLOBAL_UNCERTAINTY_ASSIGNED_CONTEXT ( ( #111 ) ) GLOBAL_UNIT_ASSIGNED_CONTEXT ( ( #150, #69, #110 ) ) REPRESENTATION_CONTEXT ( 'NONE', 'WORKASPACE' ) );
#107 = FILL_AREA_STYLE_COLOUR ( '', #108 ) ;
#108 = COLOUR_RGB ( '',0.9568627450980391500, 0.9490196078431372100, 0.9607843137254902200 ) ;
#109 = DIRECTION ( 'NONE',  ( 1.000000000000000000, 0.0000000000000000000, 0.0000000000000000000 ) ) ;
#110 =( NAMED_UNIT ( * ) SI_UNIT ( $, .STERADIAN. ) SOLID_ANGLE_UNIT ( ) );
#111 = UNCERTAINTY_MEASURE_WITH_UNIT (LENGTH_MEASURE( 1.000000000000000100E-005 ), #150, 'distance_accuracy_value', 'NONE');
#112 = SURFACE_SIDE_STYLE ('',( #113 ) ) ;
#113 = SURFACE_STYLE_FILL_AREA ( #114 ) ;
#114 = FILL_AREA_STYLE ('',( #115 ) ) ;
#115 = FILL_AREA_STYLE_COLOUR ( '', #116 ) ;
#116 = COLOUR_RGB ( '',0.9568627450980391500, 0.9490196078431372100, 0.9607843137254902200 ) ;
#117 = FACE_OUTER_BOUND ( 'NONE', #19, .T. ) ;
#118 = CARTESIAN_POINT ( 'NONE',  ( -25.39999999999999900, 3.110500138708838200E-015, -1.854441967761165700 ) ) ;
#119 = DIRECTION ( 'NONE',  ( -0.0000000000000000000, -0.0000000000000000000, 1.000000000000000000 ) ) ;
#120 = VECTOR ( 'NONE', #119, 1000.000000000000000 ) ;
#121 = CARTESIAN_POINT ( 'NONE',  ( -25.39999999999999900, 3.110500138708838200E-015, 4.308132045400366600 ) ) ;
#122 = LINE ( 'NONE', #121, #120 ) ;
#123 = DIRECTION ( 'NONE',  ( -0.0000000000000000000, -0.0000000000000000000, 1.000000000000000000 ) ) ;
#124 = CARTESIAN_POINT ( 'NONE',  ( 0.0000000000000000000, 0.0000000000000000000, -1.854441967761165700 ) ) ;
#125 = AXIS2_PLACEMENT_3D ( 'NONE', #124, #123, #103 ) ;
#126 = CARTESIAN_POINT ( 'NONE',  ( 0.0000000000000000000, 0.0000000000000000000, -1.854441967761165700 ) ) ;
#127 = SURFACE_STYLE_FILL_AREA ( #152 ) ;
#128 =( GEOMETRIC_REPRESENTATION_CONTEXT ( 3 ) GLOBAL_UNCERTAINTY_ASSIGNED_CONTEXT ( ( #88 ) ) GLOBAL_UNIT_ASSIGNED_CONTEXT ( ( #132, #99, #87 ) ) REPRESENTATION_CONTEXT ( 'NONE', 'WORKASPACE' ) );
#129 = STYLED_ITEM ( 'NONE', ( #130 ), #11 ) ;
#130 = PRESENTATION_STYLE_ASSIGNMENT (( #131 ) ) ;
#131 = SURFACE_STYLE_USAGE ( .BOTH. , #84 ) ;
#132 =( LENGTH_UNIT ( ) NAMED_UNIT ( * ) SI_UNIT ( .MILLI., .METRE. ) );
#133 = CARTESIAN_POINT ( 'NONE',  ( 0.0000000000000000000, 0.0000000000000000000, -4.844999999999998900 ) ) ;
#134 = DIRECTION ( 'NONE',  ( 1.000000000000000000, 0.0000000000000000000, 0.0000000000000000000 ) ) ;
#135 = DIRECTION ( 'NONE',  ( -0.0000000000000000000, -0.0000000000000000000, 1.000000000000000000 ) ) ;
#136 = CARTESIAN_POINT ( 'NONE',  ( 25.39999999999999900, 0.0000000000000000000, 4.308132045400366600 ) ) ;
#137 = DIRECTION ( 'NONE',  ( 0.0000000000000000000, 0.0000000000000000000, -1.000000000000000000 ) ) ;
#138 = DIRECTION ( 'NONE',  ( 1.000000000000000000, 0.0000000000000000000, 0.0000000000000000000 ) ) ;
#139 = CARTESIAN_POINT ( 'NONE',  ( 0.0000000000000000000, 0.0000000000000000000, -46.65499999999999400 ) ) ;
#140 = AXIS2_PLACEMENT_3D ( 'NONE', #139, #138, #137 ) ;
#141 = CIRCLE ( 'NONE', #140, 51.50000000000000000 ) ;
#142 = CARTESIAN_POINT ( 'NONE',  ( -25.39999999999999900, 3.110500138708838200E-015, -4.844999999999998900 ) ) ;
#143 = CARTESIAN_POINT ( 'NONE',  ( 0.0000000000000000000, 0.0000000000000000000, -46.65499999999999400 ) ) ;
#144 = PRESENTATION_LAYER_ASSIGNMENT (  '', '', ( #145 ) ) ;
#145 = STYLED_ITEM ( 'NONE', ( #146 ), #15 ) ;
#146 = PRESENTATION_STYLE_ASSIGNMENT (( #80 ) ) ;
#147 = FACE_OUTER_BOUND ( 'NONE', #4, .T. ) ;
#148 = DIRECTION ( 'NONE',  ( -0.0000000000000000000, -0.0000000000000000000, 1.000000000000000000 ) ) ;
#149 = AXIS2_PLACEMENT_3D ( 'NONE', #143, #79, #100 ) ;
#150 =( LENGTH_UNIT ( ) NAMED_UNIT ( * ) SI_UNIT ( .MILLI., .METRE. ) );
#151 = MECHANICAL_DESIGN_GEOMETRIC_PRESENTATION_REPRESENTATION (  '', ( #145 ), #106 ) ;
#152 = FILL_AREA_STYLE ('',( #101 ) ) ;
#153 = COLOUR_RGB ( '',0.9568627450980391500, 0.9490196078431372100, 0.9607843137254902200 ) ;
#154 = VECTOR ( 'NONE', #148, 1000.000000000000000 ) ;
#155 = CARTESIAN_POINT ( 'NONE',  ( 0.0000000000000000000, 0.0000000000000000000, 4.308132045400366600 ) ) ;
#156 = AXIS2_PLACEMENT_3D ( 'NONE', #155, #135, #134 ) ;
#157 = SURFACE_STYLE_FILL_AREA ( #184 ) ;
#158 = CARTESIAN_POINT ( 'NONE',  ( 0.0000000000000000000, 0.0000000000000000000, -4.844999999999998900 ) ) ;
#159 = SURFACE_STYLE_USAGE ( .BOTH. , #215 ) ;
#160 = DIRECTION ( 'NONE',  ( -0.0000000000000000000, -0.0000000000000000000, 1.000000000000000000 ) ) ;
#161 = CIRCLE ( 'NONE', #188, 25.39999999999999900 ) ;
#162 = CARTESIAN_POINT ( 'NONE',  ( 0.0000000000000000000, 0.0000000000000000000, -46.65499999999999400 ) ) ;
#163 = STYLED_ITEM ( 'NONE', ( #165 ), #56 ) ;
#164 =( LENGTH_UNIT ( ) NAMED_UNIT ( * ) SI_UNIT ( .MILLI., .METRE. ) );
#165 = PRESENTATION_STYLE_ASSIGNMENT (( #159 ) ) ;
#166 = PRESENTATION_LAYER_ASSIGNMENT (  '', '', ( #163 ) ) ;
#167 =( NAMED_UNIT ( * ) SI_UNIT ( $, .STERADIAN. ) SOLID_ANGLE_UNIT ( ) );
#168 = SPHERICAL_SURFACE ( 'NONE', #171, 51.49999999999999300 ) ;
#169 = CARTESIAN_POINT ( 'NONE',  ( 0.0000000000000000000, 0.0000000000000000000, -46.65499999999999400 ) ) ;
#170 =( LENGTH_UNIT ( ) NAMED_UNIT ( * ) SI_UNIT ( .MILLI., .METRE. ) );
#171 = AXIS2_PLACEMENT_3D ( 'NONE', #169, #230, #220 ) ;
#172 = AXIS2_PLACEMENT_3D ( 'NONE', #222, #178, #177 ) ;
#173 = FILL_AREA_STYLE_COLOUR ( '', #190 ) ;
#174 = MECHANICAL_DESIGN_GEOMETRIC_PRESENTATION_REPRESENTATION (  '', ( #176 ), #224 ) ;
#175 = PRESENTATION_LAYER_ASSIGNMENT (  '', '', ( #176 ) ) ;
#176 = STYLED_ITEM ( 'NONE', ( #208 ), #57 ) ;
#177 = DIRECTION ( 'NONE',  ( 1.000000000000000000, 0.0000000000000000000, 0.0000000000000000000 ) ) ;
#178 = DIRECTION ( 'NONE',  ( -0.0000000000000000000, -0.0000000000000000000, 1.000000000000000000 ) ) ;
#179 = CARTESIAN_POINT ( 'NONE',  ( 25.39999999999999900, 0.0000000000000000000, -1.854441967761165700 ) ) ;
#180 = CARTESIAN_POINT ( 'NONE',  ( 25.39999999999999900, 0.0000000000000000000, -4.844999999999998900 ) ) ;
#181 = COLOUR_RGB ( '',0.9568627450980391500, 0.9490196078431372100, 0.9607843137254902200 ) ;
#182 = FACE_OUTER_BOUND ( 'NONE', #42, .T. ) ;
#183 =( GEOMETRIC_REPRESENTATION_CONTEXT ( 3 ) GLOBAL_UNCERTAINTY_ASSIGNED_CONTEXT ( ( #221 ) ) GLOBAL_UNIT_ASSIGNED_CONTEXT ( ( #170, #200, #167 ) ) REPRESENTATION_CONTEXT ( 'NONE', 'WORKASPACE' ) );
#184 = FILL_AREA_STYLE ('',( #173 ) ) ;
#185 = DIRECTION ( 'NONE',  ( 1.000000000000000000, 0.0000000000000000000, 0.0000000000000000000 ) ) ;
#186 = DIRECTION ( 'NONE',  ( -0.0000000000000000000, -0.0000000000000000000, 1.000000000000000000 ) ) ;
#187 = CARTESIAN_POINT ( 'NONE',  ( 0.0000000000000000000, 0.0000000000000000000, -1.854441967761165700 ) ) ;
#188 = AXIS2_PLACEMENT_3D ( 'NONE', #187, #186, #185 ) ;
#189 = AXIS2_PLACEMENT_3D ( 'NONE', #158, #160, #201 ) ;
#190 = COLOUR_RGB ( '',0.7960784313725489700, 0.8235294117647058400, 0.9372549019607843100 ) ;
#191 = CIRCLE ( 'NONE', #189, 25.39999999999999900 ) ;
#192 = CARTESIAN_POINT ( 'NONE',  ( 0.0000000000000000000, 25.40000000000000200, -1.854441967761166800 ) ) ;
#193 = DIRECTION ( 'NONE',  ( 1.000000000000000000, 0.0000000000000000000, 0.0000000000000000000 ) ) ;
#194 = DIRECTION ( 'NONE',  ( -0.0000000000000000000, -0.0000000000000000000, 1.000000000000000000 ) ) ;
#195 = AXIS2_PLACEMENT_3D ( 'NONE', #207, #194, #193 ) ;
#196 = CIRCLE ( 'NONE', #195, 25.39999999999999900 ) ;
#197 =( NAMED_UNIT ( * ) PLANE_ANGLE_UNIT ( ) SI_UNIT ( $, .RADIAN. ) );
#198 =( LENGTH_UNIT ( ) NAMED_UNIT ( * ) SI_UNIT ( .MILLI., .METRE. ) );
#199 = CARTESIAN_POINT ( 'NONE',  ( -3.110500138708838600E-015, -25.40000000000000200, -1.854441967761166800 ) ) ;
#200 =( NAMED_UNIT ( * ) PLANE_ANGLE_UNIT ( ) SI_UNIT ( $, .RADIAN. ) );
#201 = DIRECTION ( 'NONE',  ( 1.000000000000000000, 0.0000000000000000000, 0.0000000000000000000 ) ) ;
#202 =( NAMED_UNIT ( * ) PLANE_ANGLE_UNIT ( ) SI_UNIT ( $, .RADIAN. ) );
#203 = DIRECTION ( 'NONE',  ( -1.224606353822377300E-016, -1.000000000000000000, 0.0000000000000000000 ) ) ;
#204 = DIRECTION ( 'NONE',  ( -1.000000000000000000, 1.224606353822377300E-016, 0.0000000000000000000 ) ) ;
#205 = AXIS2_PLACEMENT_3D ( 'NONE', #162, #204, #203 ) ;
#206 = CIRCLE ( 'NONE', #205, 51.49999999999999300 ) ;
#207 = CARTESIAN_POINT ( 'NONE',  ( 0.0000000000000000000, 0.0000000000000000000, -1.854441967761165700 ) ) ;
#208 = PRESENTATION_STYLE_ASSIGNMENT (( #209 ) ) ;
#209 = SURFACE_STYLE_USAGE ( .BOTH. , #210 ) ;
#210 = SURFACE_SIDE_STYLE ('',( #211 ) ) ;
#211 = SURFACE_STYLE_FILL_AREA ( #212 ) ;
#212 = FILL_AREA_STYLE ('',( #213 ) ) ;
#213 = FILL_AREA_STYLE_COLOUR ( '', #181 ) ;
#214 =( NAMED_UNIT ( * ) SI_UNIT ( $, .STERADIAN. ) SOLID_ANGLE_UNIT ( ) );
#215 = SURFACE_SIDE_STYLE ('',( #157 ) ) ;
#216 =( GEOMETRIC_REPRESENTATION_CONTEXT ( 3 ) GLOBAL_UNCERTAINTY_ASSIGNED_CONTEXT ( ( #217 ) ) GLOBAL_UNIT_ASSIGNED_CONTEXT ( ( #198, #219, #218 ) ) REPRESENTATION_CONTEXT ( 'NONE', 'WORKASPACE' ) );
#217 = UNCERTAINTY_MEASURE_WITH_UNIT (LENGTH_MEASURE( 1.000000000000000100E-005 ), #198, 'distance_accuracy_value', 'NONE');
#218 =( NAMED_UNIT ( * ) SI_UNIT ( $, .STERADIAN. ) SOLID_ANGLE_UNIT ( ) );
#219 =( NAMED_UNIT ( * ) PLANE_ANGLE_UNIT ( ) SI_UNIT ( $, .RADIAN. ) );
#220 = DIRECTION ( 'NONE',  ( 0.0000000000000000000, 1.000000000000000000, 0.0000000000000000000 ) ) ;
#221 = UNCERTAINTY_MEASURE_WITH_UNIT (LENGTH_MEASURE( 1.000000000000000100E-005 ), #170, 'distance_accuracy_value', 'NONE');
#222 = CARTESIAN_POINT ( 'NONE',  ( 0.0000000000000000000, 0.0000000000000000000, 4.308132045400366600 ) ) ;
#223 = CYLINDRICAL_SURFACE ( 'NONE', #172, 25.39999999999999900 ) ;
#224 =( GEOMETRIC_REPRESENTATION_CONTEXT ( 3 ) GLOBAL_UNCERTAINTY_ASSIGNED_CONTEXT ( ( #227 ) ) GLOBAL_UNIT_ASSIGNED_CONTEXT ( ( #164, #202, #228 ) ) REPRESENTATION_CONTEXT ( 'NONE', 'WORKASPACE' ) );
#225 = UNCERTAINTY_MEASURE_WITH_UNIT (LENGTH_MEASURE( 1.000000000000000100E-005 ), #70, 'distance_accuracy_value', 'NONE');
#226 = MECHANICAL_DESIGN_GEOMETRIC_PRESENTATION_REPRESENTATION (  '', ( #163 ), #183 ) ;
#227 = UNCERTAINTY_MEASURE_WITH_UNIT (LENGTH_MEASURE( 1.000000000000000100E-005 ), #164, 'distance_accuracy_value', 'NONE');
#228 =( NAMED_UNIT ( * ) SI_UNIT ( $, .STERADIAN. ) SOLID_ANGLE_UNIT ( ) );
#229 =( GEOMETRIC_REPRESENTATION_CONTEXT ( 3 ) GLOBAL_UNCERTAINTY_ASSIGNED_CONTEXT ( ( #225 ) ) GLOBAL_UNIT_ASSIGNED_CONTEXT ( ( #70, #197, #214 ) ) REPRESENTATION_CONTEXT ( 'NONE', 'WORKASPACE' ) );
#230 = DIRECTION ( 'NONE',  ( -1.000000000000000000, 0.0000000000000000000, 0.0000000000000000000 ) ) ;
#231 = UNCERTAINTY_MEASURE_WITH_UNIT (LENGTH_MEASURE( 1.000000000000000100E-005 ), #248, 'distance_accuracy_value', 'NONE');
#232 =( NAMED_UNIT ( * ) SI_UNIT ( $, .STERADIAN. ) SOLID_ANGLE_UNIT ( ) );
#233 =( GEOMETRIC_REPRESENTATION_CONTEXT ( 3 ) GLOBAL_UNCERTAINTY_ASSIGNED_CONTEXT ( ( #231 ) ) GLOBAL_UNIT_ASSIGNED_CONTEXT ( ( #248, #256, #232 ) ) REPRESENTATION_CONTEXT ( 'NONE', 'WORKASPACE' ) );
#234 = COLOUR_RGB ( '',0.7960784313725489700, 0.8235294117647058400, 0.9372549019607843100 ) ;
#235 = APPLICATION_CONTEXT ( 'automotive_design' ) ;
#236 = SHAPE_DEFINITION_REPRESENTATION ( #237, #65 ) ;
#237 = PRODUCT_DEFINITION_SHAPE ( 'NONE', 'NONE',  #240 ) ;
#238 = PRODUCT_RELATED_PRODUCT_CATEGORY ( 'part', '', ( #258 ) ) ;
#239 = PRODUCT_DEFINITION_FORMATION_WITH_SPECIFIED_SOURCE ( 'ANY', '', #258, .NOT_KNOWN. ) ;
#240 = PRODUCT_DEFINITION ( 'UNKNOWN', '', #239, #241 ) ;
#241 = PRODUCT_DEFINITION_CONTEXT ( 'detailed design', #243, 'design' ) ;
#242 = APPLICATION_PROTOCOL_DEFINITION ( 'draft international standard', 'automotive_design', 1998, #243 ) ;
#243 = APPLICATION_CONTEXT ( 'automotive_design' ) ;
#244 = SURFACE_STYLE_USAGE ( .BOTH. , #245 ) ;
#245 = SURFACE_SIDE_STYLE ('',( #246 ) ) ;
#246 = SURFACE_STYLE_FILL_AREA ( #247 ) ;
#247 = FILL_AREA_STYLE ('',( #257 ) ) ;
#248 =( LENGTH_UNIT ( ) NAMED_UNIT ( * ) SI_UNIT ( .MILLI., .METRE. ) );
#249 = DIRECTION ( 'NONE',  ( 1.000000000000000000, 0.0000000000000000000, 0.0000000000000000000 ) ) ;
#250 = MECHANICAL_DESIGN_GEOMETRIC_PRESENTATION_REPRESENTATION (  '', ( #252 ), #233 ) ;
#251 = PRESENTATION_LAYER_ASSIGNMENT (  '', '', ( #252 ) ) ;
#252 = STYLED_ITEM ( 'NONE', ( #253 ), #65 ) ;
#253 = PRESENTATION_STYLE_ASSIGNMENT (( #244 ) ) ;
#254 = DIRECTION ( 'NONE',  ( 0.0000000000000000000, 0.0000000000000000000, 1.000000000000000000 ) ) ;
#255 = CARTESIAN_POINT ( 'NONE',  ( 0.0000000000000000000, 0.0000000000000000000, 0.0000000000000000000 ) ) ;
#256 =( NAMED_UNIT ( * ) PLANE_ANGLE_UNIT ( ) SI_UNIT ( $, .RADIAN. ) );
#257 = FILL_AREA_STYLE_COLOUR ( '', #234 ) ;
#258 = PRODUCT ( '4454-E0W', '4454-E0W', '', ( #259 ) ) ;
#259 = PRODUCT_CONTEXT ( 'NONE', #235, 'mechanical' ) ;
#260 = APPLICATION_PROTOCOL_DEFINITION ( 'draft international standard', 'automotive_design', 1998, #235 ) ;
#261 = AXIS2_PLACEMENT_3D ( 'NONE', #255, #254, #249 ) ;
ENDSEC;
END-ISO-10303-21;
