ISO-10303-21;
HEADER;
FILE_DESCRIPTION (( 'STEP AP203' ),
    '1' );
FILE_NAME ('Web Model 20207_20210.step',
    '2022-03-01T15:53:57',
    ( '' ),
    ( '' ),
    'SwSTEP 2.0',
    'SolidWorks 2021',
    '' );
FILE_SCHEMA (( 'CONFIG_CONTROL_DESIGN' ));
ENDSEC;

DATA;
#1 = VERTEX_POINT ( 'NONE', #12 ) ;
#2 = ORIENTED_EDGE ( 'NONE', *, *, #117, .T. ) ;
#3 = ORIENTED_EDGE ( 'NONE', *, *, #35, .T. ) ;
#4 =( NAMED_UNIT ( * ) SI_UNIT ( $, .STERADIAN. ) SOLID_ANGLE_UNIT ( ) );
#5 = MANIFOLD_SOLID_BREP ( 'Boss-Extrude1', #64 ) ;
#6 = CARTESIAN_POINT ( 'NONE',  ( 0.000000000000000000, 0.000000000000000000, 0.000000000000000000 ) ) ;
#7 = DIRECTION ( 'NONE',  ( 0.000000000000000000, 0.000000000000000000, 1.000000000000000000 ) ) ;
#8 = CARTESIAN_POINT ( 'NONE',  ( 0.000000000000000000, 0.000000000000000000, 0.1000000000000000056 ) ) ;
#9 = DATE_AND_TIME ( #19, #141 ) ;
#10 = PERSON_AND_ORGANIZATION ( #73, #124 ) ;
#11 = CALENDAR_DATE ( 2022, 1, 3 ) ;
#12 = CARTESIAN_POINT ( 'NONE',  ( -7.500000000000000000, 0.000000000000000000, 0.000000000000000000 ) ) ;
#13 = PRODUCT_DEFINITION ( 'UNKNOWN', '', #39, #120 ) ;
#14 = ORIENTED_EDGE ( 'NONE', *, *, #81, .F. ) ;
#15 = DIRECTION ( 'NONE',  ( 1.000000000000000000, 0.000000000000000000, 0.000000000000000000 ) ) ;
#16 = UNCERTAINTY_MEASURE_WITH_UNIT (LENGTH_MEASURE( 1.000000000000000082E-05 ), #118, 'distance_accuracy_value', 'NONE');
#17 = FACE_OUTER_BOUND ( 'NONE', #23, .T. ) ;
#18 = APPROVAL_PERSON_ORGANIZATION ( #10, #88, #85 ) ;
#19 = CALENDAR_DATE ( 2022, 1, 3 ) ;
#20 = PERSON_AND_ORGANIZATION ( #73, #124 ) ;
#21 = EDGE_CURVE ( 'NONE', #38, #1, #95, .T. ) ;
#22 = EDGE_LOOP ( 'NONE', ( #175, #78 ) ) ;
#23 = EDGE_LOOP ( 'NONE', ( #127, #159 ) ) ;
#24 = APPROVAL ( #138, 'UNSPECIFIED' ) ;
#25 = DIRECTION ( 'NONE',  ( 1.000000000000000000, 0.000000000000000000, 0.000000000000000000 ) ) ;
#26 = CARTESIAN_POINT ( 'NONE',  ( 0.000000000000000000, 0.000000000000000000, 0.1000000000000000056 ) ) ;
#27 = VECTOR ( 'NONE', #30, 1000.000000000000000 ) ;
#28 = CARTESIAN_POINT ( 'NONE',  ( 0.000000000000000000, 0.000000000000000000, 0.1000000000000000056 ) ) ;
#29 = CARTESIAN_POINT ( 'NONE',  ( 0.000000000000000000, 0.000000000000000000, 0.1000000000000000056 ) ) ;
#30 = DIRECTION ( 'NONE',  ( -0.000000000000000000, -0.000000000000000000, -1.000000000000000000 ) ) ;
#31 = VECTOR ( 'NONE', #146, 1000.000000000000000 ) ;
#32 = CC_DESIGN_APPROVAL ( #110, ( #39 ) ) ;
#33 = APPLICATION_CONTEXT ( 'configuration controlled 3d designs of mechanical parts and assemblies' ) ;
#34 = PERSON_AND_ORGANIZATION ( #73, #124 ) ;
#35 = EDGE_CURVE ( 'NONE', #1, #38, #79, .T. ) ;
#36 = LOCAL_TIME ( 10, 53, 57.00000000000000000, #140 ) ;
#37 = APPROVAL_ROLE ( '' ) ;
#38 = VERTEX_POINT ( 'NONE', #103 ) ;
#39 = PRODUCT_DEFINITION_FORMATION_WITH_SPECIFIED_SOURCE ( 'ANY', '', #58, .NOT_KNOWN. ) ;
#40 = ORIENTED_EDGE ( 'NONE', *, *, #117, .F. ) ;
#41 = AXIS2_PLACEMENT_3D ( 'NONE', #26, #106, #80 ) ;
#42 = FACE_OUTER_BOUND ( 'NONE', #98, .T. ) ;
#43 = DIRECTION ( 'NONE',  ( -1.000000000000000000, 0.000000000000000000, 0.000000000000000000 ) ) ;
#44 = PLANE ( 'NONE',  #121 ) ;
#45 = AXIS2_PLACEMENT_3D ( 'NONE', #28, #47, #89 ) ;
#46 = ADVANCED_BREP_SHAPE_REPRESENTATION ( 'Web Model 20207_20210', ( #5, #128 ), #87 ) ;
#47 = DIRECTION ( 'NONE',  ( -0.000000000000000000, -0.000000000000000000, -1.000000000000000000 ) ) ;
#48 = AXIS2_PLACEMENT_3D ( 'NONE', #8, #135, #15 ) ;
#49 = SHAPE_DEFINITION_REPRESENTATION ( #77, #46 ) ;
#50 = DATE_TIME_ROLE ( 'classification_date' ) ;
#51 = PERSON_AND_ORGANIZATION_ROLE ( 'classification_officer' ) ;
#52 = APPROVAL_STATUS ( 'not_yet_approved' ) ;
#53 = VERTEX_POINT ( 'NONE', #104 ) ;
#54 = ADVANCED_FACE ( 'NONE', ( #42 ), #116, .T. ) ;
#55 = DIRECTION ( 'NONE',  ( 0.000000000000000000, 0.000000000000000000, 1.000000000000000000 ) ) ;
#56 = CC_DESIGN_DATE_AND_TIME_ASSIGNMENT ( #63, #107, ( #13 ) ) ;
#57 = DIRECTION ( 'NONE',  ( 1.000000000000000000, 0.000000000000000000, 0.000000000000000000 ) ) ;
#58 = PRODUCT ( 'Web Model 20207_20210', 'Web Model 20207_20210', '', ( #163 ) ) ;
#59 = PERSON_AND_ORGANIZATION_ROLE ( 'design_owner' ) ;
#60 = DIRECTION ( 'NONE',  ( 1.000000000000000000, 0.000000000000000000, -0.000000000000000000 ) ) ;
#61 = EDGE_CURVE ( 'NONE', #86, #1, #119, .T. ) ;
#62 = COORDINATED_UNIVERSAL_TIME_OFFSET ( 5, 0, .BEHIND. ) ;
#63 = DATE_AND_TIME ( #11, #65 ) ;
#64 = CLOSED_SHELL ( 'NONE', ( #54, #74, #153, #166 ) ) ;
#65 = LOCAL_TIME ( 10, 53, 57.00000000000000000, #154 ) ;
#66 = CARTESIAN_POINT ( 'NONE',  ( 0.000000000000000000, 0.000000000000000000, 0.000000000000000000 ) ) ;
#67 = CARTESIAN_POINT ( 'NONE',  ( 7.500000000000000000, 9.184850993605147944E-16, 0.1000000000000000056 ) ) ;
#68 = LINE ( 'NONE', #67, #27 ) ;
#69 = CARTESIAN_POINT ( 'NONE',  ( 0.000000000000000000, 0.000000000000000000, 0.000000000000000000 ) ) ;
#70 = LOCAL_TIME ( 10, 53, 57.00000000000000000, #62 ) ;
#71 = COORDINATED_UNIVERSAL_TIME_OFFSET ( 5, 0, .BEHIND. ) ;
#72 = APPROVAL_DATE_TIME ( #84, #24 ) ;
#73 = PERSON ( 'UNSPECIFIED', 'UNSPECIFIED', 'UNSPECIFIED', ('UNSPECIFIED'), ('UNSPECIFIED'), ('UNSPECIFIED') ) ;
#74 = ADVANCED_FACE ( 'NONE', ( #92 ), #82, .T. ) ;
#75 = ORIENTED_EDGE ( 'NONE', *, *, #105, .F. ) ;
#76 = CARTESIAN_POINT ( 'NONE',  ( 0.000000000000000000, 0.000000000000000000, 0.000000000000000000 ) ) ;
#77 = PRODUCT_DEFINITION_SHAPE ( 'NONE', 'NONE',  #13 ) ;
#78 = ORIENTED_EDGE ( 'NONE', *, *, #81, .T. ) ;
#79 = CIRCLE ( 'NONE', #113, 7.500000000000000000 ) ;
#80 = DIRECTION ( 'NONE',  ( 1.000000000000000000, 0.000000000000000000, 0.000000000000000000 ) ) ;
#81 = EDGE_CURVE ( 'NONE', #53, #86, #99, .T. ) ;
#82 = CYLINDRICAL_SURFACE ( 'NONE', #115, 7.500000000000000000 ) ;
#83 = COORDINATED_UNIVERSAL_TIME_OFFSET ( 5, 0, .BEHIND. ) ;
#84 = DATE_AND_TIME ( #139, #70 ) ;
#85 = APPROVAL_ROLE ( '' ) ;
#86 = VERTEX_POINT ( 'NONE', #167 ) ;
#87 =( GEOMETRIC_REPRESENTATION_CONTEXT ( 3 ) GLOBAL_UNCERTAINTY_ASSIGNED_CONTEXT ( ( #16 ) ) GLOBAL_UNIT_ASSIGNED_CONTEXT ( ( #118, #122, #4 ) ) REPRESENTATION_CONTEXT ( 'NONE', 'WORKASPACE' ) );
#88 = APPROVAL ( #94, 'UNSPECIFIED' ) ;
#89 = DIRECTION ( 'NONE',  ( -1.000000000000000000, 0.000000000000000000, 0.000000000000000000 ) ) ;
#90 = DIRECTION ( 'NONE',  ( -0.000000000000000000, -0.000000000000000000, -1.000000000000000000 ) ) ;
#91 = PLANE ( 'NONE',  #144 ) ;
#92 = FACE_OUTER_BOUND ( 'NONE', #142, .T. ) ;
#93 = APPLICATION_CONTEXT ( 'configuration controlled 3d designs of mechanical parts and assemblies' ) ;
#94 = APPROVAL_STATUS ( 'not_yet_approved' ) ;
#95 = CIRCLE ( 'NONE', #147, 7.500000000000000000 ) ;
#96 = CC_DESIGN_PERSON_AND_ORGANIZATION_ASSIGNMENT ( #170, #171, ( #39 ) ) ;
#97 = SECURITY_CLASSIFICATION_LEVEL ( 'unclassified' ) ;
#98 = EDGE_LOOP ( 'NONE', ( #14, #2, #100, #143 ) ) ;
#99 = CIRCLE ( 'NONE', #41, 7.500000000000000000 ) ;
#100 = ORIENTED_EDGE ( 'NONE', *, *, #21, .T. ) ;
#101 = ORIENTED_EDGE ( 'NONE', *, *, #61, .T. ) ;
#102 = LOCAL_TIME ( 10, 53, 57.00000000000000000, #71 ) ;
#103 = CARTESIAN_POINT ( 'NONE',  ( 7.500000000000000000, 9.184850993605147944E-16, 0.000000000000000000 ) ) ;
#104 = CARTESIAN_POINT ( 'NONE',  ( 7.500000000000000000, 9.184850993605147944E-16, 0.1000000000000000056 ) ) ;
#105 = EDGE_CURVE ( 'NONE', #86, #53, #161, .T. ) ;
#106 = DIRECTION ( 'NONE',  ( 0.000000000000000000, 0.000000000000000000, 1.000000000000000000 ) ) ;
#107 = DATE_TIME_ROLE ( 'creation_date' ) ;
#108 = APPLICATION_PROTOCOL_DEFINITION ( 'international standard', 'config_control_design', 1994, #93 ) ;
#109 = DATE_AND_TIME ( #168, #102 ) ;
#110 = APPROVAL ( #52, 'UNSPECIFIED' ) ;
#111 = PERSON_AND_ORGANIZATION_ROLE ( 'design_supplier' ) ;
#112 = SECURITY_CLASSIFICATION ( '', '', #97 ) ;
#113 = AXIS2_PLACEMENT_3D ( 'NONE', #66, #162, #149 ) ;
#114 = DIRECTION ( 'NONE',  ( 0.000000000000000000, 0.000000000000000000, 1.000000000000000000 ) ) ;
#115 = AXIS2_PLACEMENT_3D ( 'NONE', #29, #90, #43 ) ;
#116 = CYLINDRICAL_SURFACE ( 'NONE', #45, 7.500000000000000000 ) ;
#117 = EDGE_CURVE ( 'NONE', #53, #38, #68, .T. ) ;
#118 =( LENGTH_UNIT ( ) NAMED_UNIT ( * ) SI_UNIT ( .MILLI., .METRE. ) );
#119 = LINE ( 'NONE', #131, #31 ) ;
#120 = DESIGN_CONTEXT ( 'detailed design', #93, 'design' ) ;
#121 = AXIS2_PLACEMENT_3D ( 'NONE', #134, #114, #60 ) ;
#122 =( NAMED_UNIT ( * ) PLANE_ANGLE_UNIT ( ) SI_UNIT ( $, .RADIAN. ) );
#123 = PERSON_AND_ORGANIZATION ( #73, #124 ) ;
#124 = ORGANIZATION ( 'UNSPECIFIED', 'UNSPECIFIED', '' ) ;
#125 = PERSON_AND_ORGANIZATION ( #73, #124 ) ;
#126 = PERSON_AND_ORGANIZATION_ROLE ( 'creator' ) ;
#127 = ORIENTED_EDGE ( 'NONE', *, *, #35, .F. ) ;
#128 = AXIS2_PLACEMENT_3D ( 'NONE', #6, #148, #57 ) ;
#129 = CC_DESIGN_PERSON_AND_ORGANIZATION_ASSIGNMENT ( #164, #59, ( #58 ) ) ;
#130 = FACE_OUTER_BOUND ( 'NONE', #22, .T. ) ;
#131 = CARTESIAN_POINT ( 'NONE',  ( -7.500000000000000000, 0.000000000000000000, 0.1000000000000000056 ) ) ;
#132 = CC_DESIGN_PERSON_AND_ORGANIZATION_ASSIGNMENT ( #172, #51, ( #112 ) ) ;
#133 = DIRECTION ( 'NONE',  ( 1.000000000000000000, 0.000000000000000000, -0.000000000000000000 ) ) ;
#134 = CARTESIAN_POINT ( 'NONE',  ( 0.000000000000000000, 0.000000000000000000, 0.1000000000000000056 ) ) ;
#135 = DIRECTION ( 'NONE',  ( 0.000000000000000000, 0.000000000000000000, 1.000000000000000000 ) ) ;
#136 = APPROVAL_PERSON_ORGANIZATION ( #123, #110, #37 ) ;
#137 = DATE_AND_TIME ( #158, #36 ) ;
#138 = APPROVAL_STATUS ( 'not_yet_approved' ) ;
#139 = CALENDAR_DATE ( 2022, 1, 3 ) ;
#140 = COORDINATED_UNIVERSAL_TIME_OFFSET ( 5, 0, .BEHIND. ) ;
#141 = LOCAL_TIME ( 10, 53, 57.00000000000000000, #83 ) ;
#142 = EDGE_LOOP ( 'NONE', ( #40, #75, #101, #3 ) ) ;
#143 = ORIENTED_EDGE ( 'NONE', *, *, #61, .F. ) ;
#144 = AXIS2_PLACEMENT_3D ( 'NONE', #69, #7, #133 ) ;
#145 = CC_DESIGN_SECURITY_CLASSIFICATION ( #112, ( #39 ) ) ;
#146 = DIRECTION ( 'NONE',  ( -0.000000000000000000, -0.000000000000000000, -1.000000000000000000 ) ) ;
#147 = AXIS2_PLACEMENT_3D ( 'NONE', #76, #55, #25 ) ;
#148 = DIRECTION ( 'NONE',  ( 0.000000000000000000, 0.000000000000000000, 1.000000000000000000 ) ) ;
#149 = DIRECTION ( 'NONE',  ( 1.000000000000000000, 0.000000000000000000, 0.000000000000000000 ) ) ;
#150 = CC_DESIGN_PERSON_AND_ORGANIZATION_ASSIGNMENT ( #34, #111, ( #39 ) ) ;
#151 = APPLICATION_PROTOCOL_DEFINITION ( 'international standard', 'config_control_design', 1994, #33 ) ;
#152 = APPROVAL_ROLE ( '' ) ;
#153 = ADVANCED_FACE ( 'NONE', ( #130 ), #44, .T. ) ;
#154 = COORDINATED_UNIVERSAL_TIME_OFFSET ( 5, 0, .BEHIND. ) ;
#155 = APPROVAL_PERSON_ORGANIZATION ( #20, #24, #152 ) ;
#156 = APPROVAL_DATE_TIME ( #137, #88 ) ;
#157 = CC_DESIGN_APPROVAL ( #88, ( #112 ) ) ;
#158 = CALENDAR_DATE ( 2022, 1, 3 ) ;
#159 = ORIENTED_EDGE ( 'NONE', *, *, #21, .F. ) ;
#160 = PRODUCT_RELATED_PRODUCT_CATEGORY ( 'detail', '', ( #58 ) ) ;
#161 = CIRCLE ( 'NONE', #48, 7.500000000000000000 ) ;
#162 = DIRECTION ( 'NONE',  ( 0.000000000000000000, 0.000000000000000000, 1.000000000000000000 ) ) ;
#163 = MECHANICAL_CONTEXT ( 'NONE', #33, 'mechanical' ) ;
#164 = PERSON_AND_ORGANIZATION ( #73, #124 ) ;
#165 = CC_DESIGN_APPROVAL ( #24, ( #13 ) ) ;
#166 = ADVANCED_FACE ( 'NONE', ( #17 ), #91, .F. ) ;
#167 = CARTESIAN_POINT ( 'NONE',  ( -7.500000000000000000, 0.000000000000000000, 0.1000000000000000056 ) ) ;
#168 = CALENDAR_DATE ( 2022, 1, 3 ) ;
#169 = CC_DESIGN_PERSON_AND_ORGANIZATION_ASSIGNMENT ( #125, #126, ( #13 ) ) ;
#170 = PERSON_AND_ORGANIZATION ( #73, #124 ) ;
#171 = PERSON_AND_ORGANIZATION_ROLE ( 'creator' ) ;
#172 = PERSON_AND_ORGANIZATION ( #73, #124 ) ;
#173 = APPROVAL_DATE_TIME ( #9, #110 ) ;
#174 = CC_DESIGN_DATE_AND_TIME_ASSIGNMENT ( #109, #50, ( #112 ) ) ;
#175 = ORIENTED_EDGE ( 'NONE', *, *, #105, .T. ) ;
ENDSEC;
END-ISO-10303-21;
