ISO-10303-21;
HEADER;
FILE_DESCRIPTION (( 'STEP AP203' ),
    '1' );
FILE_NAME ('Web Model 32948_45637.step',
    '2017-04-10T16:14:45',
    ( '' ),
    ( '' ),
    'SwSTEP 2.0',
    'SolidWorks 2016',
    '' );
FILE_SCHEMA (( 'CONFIG_CONTROL_DESIGN' ));
ENDSEC;

DATA;
#1 = PERSON_AND_ORGANIZATION ( #117, #171 ) ;
#2 = DIRECTION ( 'NONE',  ( 1.000000000000000000, 0.0000000000000000000, 0.0000000000000000000 ) ) ;
#3 = DIRECTION ( 'NONE',  ( -1.000000000000000000, 0.0000000000000000000, 0.0000000000000000000 ) ) ;
#4 = DIRECTION ( 'NONE',  ( -1.000000000000000000, 0.0000000000000000000, 0.0000000000000000000 ) ) ;
#5 = CC_DESIGN_PERSON_AND_ORGANIZATION_ASSIGNMENT ( #21, #151, ( #156 ) ) ;
#6 = APPROVAL_STATUS ( 'not_yet_approved' ) ;
#7 = UNCERTAINTY_MEASURE_WITH_UNIT (LENGTH_MEASURE( 1.000000000000000100E-005 ), #166, 'distance_accuracy_value', 'NONE');
#8 = CARTESIAN_POINT ( 'NONE',  ( 0.0000000000000000000, 0.0000000000000000000, 0.0000000000000000000 ) ) ;
#9 = ADVANCED_FACE ( 'NONE', ( #175 ), #15, .T. ) ;
#10 = DATE_AND_TIME ( #90, #149 ) ;
#11 = AXIS2_PLACEMENT_3D ( 'NONE', #8, #69, #30 ) ;
#12 = COORDINATED_UNIVERSAL_TIME_OFFSET ( 5, 0, .BEHIND. ) ;
#13 = APPLICATION_PROTOCOL_DEFINITION ( 'international standard', 'config_control_design', 1994, #50 ) ;
#14 = CC_DESIGN_PERSON_AND_ORGANIZATION_ASSIGNMENT ( #101, #168, ( #156 ) ) ;
#15 = PLANE ( 'NONE',  #137 ) ;
#16 = PERSON_AND_ORGANIZATION ( #117, #171 ) ;
#17 = CARTESIAN_POINT ( 'NONE',  ( -6.250000000000000000, 0.0000000000000000000, 2.000000000000000000 ) ) ;
#18 = AXIS2_PLACEMENT_3D ( 'NONE', #145, #35, #37 ) ;
#19 = DIRECTION ( 'NONE',  ( -0.0000000000000000000, -0.0000000000000000000, -1.000000000000000000 ) ) ;
#20 = CIRCLE ( 'NONE', #96, 6.250000000000000000 ) ;
#21 = PERSON_AND_ORGANIZATION ( #117, #171 ) ;
#22 = VERTEX_POINT ( 'NONE', #60 ) ;
#23 = CARTESIAN_POINT ( 'NONE',  ( 0.0000000000000000000, 0.0000000000000000000, 2.000000000000000000 ) ) ;
#24 = ADVANCED_FACE ( 'NONE', ( #93 ), #147, .T. ) ;
#25 = SECURITY_CLASSIFICATION ( '', '', #129 ) ;
#26 = VECTOR ( 'NONE', #154, 1000.000000000000000 ) ;
#27 = EDGE_CURVE ( 'NONE', #136, #89, #172, .T. ) ;
#28 = APPROVAL_STATUS ( 'not_yet_approved' ) ;
#29 =( GEOMETRIC_REPRESENTATION_CONTEXT ( 3 ) GLOBAL_UNCERTAINTY_ASSIGNED_CONTEXT ( ( #7 ) ) GLOBAL_UNIT_ASSIGNED_CONTEXT ( ( #166, #148, #53 ) ) REPRESENTATION_CONTEXT ( 'NONE', 'WORKASPACE' ) );
#30 = DIRECTION ( 'NONE',  ( 1.000000000000000000, 0.0000000000000000000, 0.0000000000000000000 ) ) ;
#31 = ORIENTED_EDGE ( 'NONE', *, *, #27, .F. ) ;
#32 = CARTESIAN_POINT ( 'NONE',  ( 6.250000000000000000, 7.654042494670957600E-016, 2.000000000000000000 ) ) ;
#33 = LOCAL_TIME ( 12, 14, 45.00000000000000000, #107 ) ;
#34 = DIRECTION ( 'NONE',  ( 0.0000000000000000000, 0.0000000000000000000, 1.000000000000000000 ) ) ;
#35 = DIRECTION ( 'NONE',  ( 0.0000000000000000000, 0.0000000000000000000, 1.000000000000000000 ) ) ;
#36 = CC_DESIGN_PERSON_AND_ORGANIZATION_ASSIGNMENT ( #159, #144, ( #25 ) ) ;
#37 = DIRECTION ( 'NONE',  ( 1.000000000000000000, 0.0000000000000000000, 0.0000000000000000000 ) ) ;
#38 = CALENDAR_DATE ( 2017, 10, 4 ) ;
#39 = DIRECTION ( 'NONE',  ( 0.0000000000000000000, 0.0000000000000000000, 1.000000000000000000 ) ) ;
#40 = EDGE_CURVE ( 'NONE', #160, #22, #20, .T. ) ;
#41 = COORDINATED_UNIVERSAL_TIME_OFFSET ( 5, 0, .BEHIND. ) ;
#42 = DATE_AND_TIME ( #38, #141 ) ;
#43 = MANIFOLD_SOLID_BREP ( 'Extrude1', #167 ) ;
#44 = CIRCLE ( 'NONE', #11, 6.250000000000000000 ) ;
#45 = ORIENTED_EDGE ( 'NONE', *, *, #74, .T. ) ;
#46 = CC_DESIGN_DATE_AND_TIME_ASSIGNMENT ( #59, #162, ( #25 ) ) ;
#47 = PLANE ( 'NONE',  #61 ) ;
#48 = EDGE_CURVE ( 'NONE', #136, #160, #158, .T. ) ;
#49 = APPROVAL_ROLE ( '' ) ;
#50 = APPLICATION_CONTEXT ( 'configuration controlled 3d designs of mechanical parts and assemblies' ) ;
#51 = AXIS2_PLACEMENT_3D ( 'NONE', #23, #95, #3 ) ;
#52 = DIRECTION ( 'NONE',  ( 0.0000000000000000000, 0.0000000000000000000, 1.000000000000000000 ) ) ;
#53 =( NAMED_UNIT ( * ) SI_UNIT ( $, .STERADIAN. ) SOLID_ANGLE_UNIT ( ) );
#54 = ORIENTED_EDGE ( 'NONE', *, *, #40, .F. ) ;
#55 = APPROVAL ( #77, 'UNSPECIFIED' ) ;
#56 = DATE_AND_TIME ( #80, #87 ) ;
#57 = ORIENTED_EDGE ( 'NONE', *, *, #82, .T. ) ;
#58 = EDGE_CURVE ( 'NONE', #22, #160, #44, .T. ) ;
#59 = DATE_AND_TIME ( #63, #33 ) ;
#60 = CARTESIAN_POINT ( 'NONE',  ( 6.250000000000000000, 7.654042494670957600E-016, 0.0000000000000000000 ) ) ;
#61 = AXIS2_PLACEMENT_3D ( 'NONE', #86, #132, #142 ) ;
#62 = ORIENTED_EDGE ( 'NONE', *, *, #48, .F. ) ;
#63 = CALENDAR_DATE ( 2017, 10, 4 ) ;
#64 = CARTESIAN_POINT ( 'NONE',  ( 0.0000000000000000000, 0.0000000000000000000, 0.0000000000000000000 ) ) ;
#65 = APPROVAL_DATE_TIME ( #99, #164 ) ;
#66 = APPLICATION_CONTEXT ( 'configuration controlled 3d designs of mechanical parts and assemblies' ) ;
#67 = ORIENTED_EDGE ( 'NONE', *, *, #27, .T. ) ;
#68 = CARTESIAN_POINT ( 'NONE',  ( 0.0000000000000000000, 0.0000000000000000000, 2.000000000000000000 ) ) ;
#69 = DIRECTION ( 'NONE',  ( 0.0000000000000000000, 0.0000000000000000000, 1.000000000000000000 ) ) ;
#70 = CC_DESIGN_APPROVAL ( #55, ( #25 ) ) ;
#71 = CARTESIAN_POINT ( 'NONE',  ( 0.0000000000000000000, 0.0000000000000000000, 0.0000000000000000000 ) ) ;
#72 = DIRECTION ( 'NONE',  ( 1.000000000000000000, 0.0000000000000000000, 0.0000000000000000000 ) ) ;
#73 = FACE_OUTER_BOUND ( 'NONE', #111, .T. ) ;
#74 = EDGE_CURVE ( 'NONE', #89, #136, #134, .T. ) ;
#75 = EDGE_LOOP ( 'NONE', ( #106, #31, #123, #83 ) ) ;
#76 = COORDINATED_UNIVERSAL_TIME_OFFSET ( 5, 0, .BEHIND. ) ;
#77 = APPROVAL_STATUS ( 'not_yet_approved' ) ;
#78 = DESIGN_CONTEXT ( 'detailed design', #66, 'design' ) ;
#79 = CC_DESIGN_SECURITY_CLASSIFICATION ( #25, ( #156 ) ) ;
#80 = CALENDAR_DATE ( 2017, 10, 4 ) ;
#81 = CARTESIAN_POINT ( 'NONE',  ( -6.250000000000000000, 0.0000000000000000000, 0.0000000000000000000 ) ) ;
#82 = EDGE_CURVE ( 'NONE', #89, #22, #105, .T. ) ;
#83 = ORIENTED_EDGE ( 'NONE', *, *, #40, .T. ) ;
#84 = CARTESIAN_POINT ( 'NONE',  ( 0.0000000000000000000, 0.0000000000000000000, 2.000000000000000000 ) ) ;
#85 = DIRECTION ( 'NONE',  ( 1.000000000000000000, 0.0000000000000000000, -0.0000000000000000000 ) ) ;
#86 = CARTESIAN_POINT ( 'NONE',  ( 0.0000000000000000000, 0.0000000000000000000, 0.0000000000000000000 ) ) ;
#87 = LOCAL_TIME ( 12, 14, 45.00000000000000000, #76 ) ;
#88 = CYLINDRICAL_SURFACE ( 'NONE', #51, 6.250000000000000000 ) ;
#89 = VERTEX_POINT ( 'NONE', #32 ) ;
#90 = CALENDAR_DATE ( 2017, 10, 4 ) ;
#91 = PRODUCT_RELATED_PRODUCT_CATEGORY ( 'detail', '', ( #138 ) ) ;
#92 = LOCAL_TIME ( 12, 14, 45.00000000000000000, #12 ) ;
#93 = FACE_OUTER_BOUND ( 'NONE', #139, .T. ) ;
#94 = DATE_TIME_ROLE ( 'creation_date' ) ;
#95 = DIRECTION ( 'NONE',  ( -0.0000000000000000000, -0.0000000000000000000, -1.000000000000000000 ) ) ;
#96 = AXIS2_PLACEMENT_3D ( 'NONE', #71, #39, #121 ) ;
#97 = DIRECTION ( 'NONE',  ( -0.0000000000000000000, -0.0000000000000000000, -1.000000000000000000 ) ) ;
#98 = CARTESIAN_POINT ( 'NONE',  ( 0.0000000000000000000, 0.0000000000000000000, 2.000000000000000000 ) ) ;
#99 = DATE_AND_TIME ( #133, #92 ) ;
#100 = AXIS2_PLACEMENT_3D ( 'NONE', #64, #157, #2 ) ;
#101 = PERSON_AND_ORGANIZATION ( #117, #171 ) ;
#102 = ADVANCED_FACE ( 'NONE', ( #109 ), #88, .T. ) ;
#103 = AXIS2_PLACEMENT_3D ( 'NONE', #98, #19, #4 ) ;
#104 = PERSON_AND_ORGANIZATION ( #117, #171 ) ;
#105 = LINE ( 'NONE', #108, #161 ) ;
#106 = ORIENTED_EDGE ( 'NONE', *, *, #82, .F. ) ;
#107 = COORDINATED_UNIVERSAL_TIME_OFFSET ( 5, 0, .BEHIND. ) ;
#108 = CARTESIAN_POINT ( 'NONE',  ( 6.250000000000000000, 7.654042494670957600E-016, 2.000000000000000000 ) ) ;
#109 = FACE_OUTER_BOUND ( 'NONE', #75, .T. ) ;
#110 = APPROVAL_ROLE ( '' ) ;
#111 = EDGE_LOOP ( 'NONE', ( #54, #170 ) ) ;
#112 = CC_DESIGN_PERSON_AND_ORGANIZATION_ASSIGNMENT ( #126, #146, ( #138 ) ) ;
#113 = APPROVAL_DATE_TIME ( #42, #125 ) ;
#114 = APPROVAL_PERSON_ORGANIZATION ( #104, #55, #110 ) ;
#115 = PERSON_AND_ORGANIZATION ( #117, #171 ) ;
#116 = APPROVAL_PERSON_ORGANIZATION ( #1, #125, #128 ) ;
#117 = PERSON ( 'UNSPECIFIED', 'UNSPECIFIED', 'UNSPECIFIED', ('UNSPECIFIED'), ('UNSPECIFIED'), ('UNSPECIFIED') ) ;
#118 = PRODUCT_DEFINITION_SHAPE ( 'NONE', 'NONE',  #119 ) ;
#119 = PRODUCT_DEFINITION ( 'UNKNOWN', '', #156, #78 ) ;
#120 = ORIENTED_EDGE ( 'NONE', *, *, #74, .F. ) ;
#121 = DIRECTION ( 'NONE',  ( 1.000000000000000000, 0.0000000000000000000, 0.0000000000000000000 ) ) ;
#122 = ADVANCED_FACE ( 'NONE', ( #73 ), #47, .F. ) ;
#123 = ORIENTED_EDGE ( 'NONE', *, *, #48, .T. ) ;
#124 = APPROVAL_DATE_TIME ( #10, #55 ) ;
#125 = APPROVAL ( #6, 'UNSPECIFIED' ) ;
#126 = PERSON_AND_ORGANIZATION ( #117, #171 ) ;
#127 = APPLICATION_PROTOCOL_DEFINITION ( 'international standard', 'config_control_design', 1994, #66 ) ;
#128 = APPROVAL_ROLE ( '' ) ;
#129 = SECURITY_CLASSIFICATION_LEVEL ( 'unclassified' ) ;
#130 = SHAPE_DEFINITION_REPRESENTATION ( #118, #152 ) ;
#131 = CC_DESIGN_APPROVAL ( #125, ( #119 ) ) ;
#132 = DIRECTION ( 'NONE',  ( 0.0000000000000000000, 0.0000000000000000000, 1.000000000000000000 ) ) ;
#133 = CALENDAR_DATE ( 2017, 10, 4 ) ;
#134 = CIRCLE ( 'NONE', #18, 6.250000000000000000 ) ;
#135 = ORIENTED_EDGE ( 'NONE', *, *, #58, .T. ) ;
#136 = VERTEX_POINT ( 'NONE', #17 ) ;
#137 = AXIS2_PLACEMENT_3D ( 'NONE', #68, #34, #85 ) ;
#138 = PRODUCT ( 'Web Model 32948_45637', 'Web Model 32948_45637', '', ( #165 ) ) ;
#139 = EDGE_LOOP ( 'NONE', ( #120, #57, #135, #62 ) ) ;
#140 = CC_DESIGN_PERSON_AND_ORGANIZATION_ASSIGNMENT ( #115, #174, ( #119 ) ) ;
#141 = LOCAL_TIME ( 12, 14, 45.00000000000000000, #169 ) ;
#142 = DIRECTION ( 'NONE',  ( 1.000000000000000000, 0.0000000000000000000, -0.0000000000000000000 ) ) ;
#143 = AXIS2_PLACEMENT_3D ( 'NONE', #84, #52, #72 ) ;
#144 = PERSON_AND_ORGANIZATION_ROLE ( 'classification_officer' ) ;
#145 = CARTESIAN_POINT ( 'NONE',  ( 0.0000000000000000000, 0.0000000000000000000, 2.000000000000000000 ) ) ;
#146 = PERSON_AND_ORGANIZATION_ROLE ( 'design_owner' ) ;
#147 = CYLINDRICAL_SURFACE ( 'NONE', #103, 6.250000000000000000 ) ;
#148 =( NAMED_UNIT ( * ) PLANE_ANGLE_UNIT ( ) SI_UNIT ( $, .RADIAN. ) );
#149 = LOCAL_TIME ( 12, 14, 45.00000000000000000, #41 ) ;
#150 = CC_DESIGN_DATE_AND_TIME_ASSIGNMENT ( #56, #94, ( #119 ) ) ;
#151 = PERSON_AND_ORGANIZATION_ROLE ( 'creator' ) ;
#152 = ADVANCED_BREP_SHAPE_REPRESENTATION ( 'Web Model 32948_45637', ( #43, #100 ), #29 ) ;
#153 = APPROVAL_PERSON_ORGANIZATION ( #16, #164, #49 ) ;
#154 = DIRECTION ( 'NONE',  ( -0.0000000000000000000, -0.0000000000000000000, -1.000000000000000000 ) ) ;
#155 = CARTESIAN_POINT ( 'NONE',  ( -6.250000000000000000, 0.0000000000000000000, 2.000000000000000000 ) ) ;
#156 = PRODUCT_DEFINITION_FORMATION_WITH_SPECIFIED_SOURCE ( 'ANY', '', #138, .NOT_KNOWN. ) ;
#157 = DIRECTION ( 'NONE',  ( 0.0000000000000000000, 0.0000000000000000000, 1.000000000000000000 ) ) ;
#158 = LINE ( 'NONE', #155, #26 ) ;
#159 = PERSON_AND_ORGANIZATION ( #117, #171 ) ;
#160 = VERTEX_POINT ( 'NONE', #81 ) ;
#161 = VECTOR ( 'NONE', #97, 1000.000000000000000 ) ;
#162 = DATE_TIME_ROLE ( 'classification_date' ) ;
#163 = EDGE_LOOP ( 'NONE', ( #67, #45 ) ) ;
#164 = APPROVAL ( #28, 'UNSPECIFIED' ) ;
#165 = MECHANICAL_CONTEXT ( 'NONE', #50, 'mechanical' ) ;
#166 =( LENGTH_UNIT ( ) NAMED_UNIT ( * ) SI_UNIT ( .MILLI., .METRE. ) );
#167 = CLOSED_SHELL ( 'NONE', ( #24, #102, #9, #122 ) ) ;
#168 = PERSON_AND_ORGANIZATION_ROLE ( 'design_supplier' ) ;
#169 = COORDINATED_UNIVERSAL_TIME_OFFSET ( 5, 0, .BEHIND. ) ;
#170 = ORIENTED_EDGE ( 'NONE', *, *, #58, .F. ) ;
#171 = ORGANIZATION ( 'UNSPECIFIED', 'UNSPECIFIED', '' ) ;
#172 = CIRCLE ( 'NONE', #143, 6.250000000000000000 ) ;
#173 = CC_DESIGN_APPROVAL ( #164, ( #156 ) ) ;
#174 = PERSON_AND_ORGANIZATION_ROLE ( 'creator' ) ;
#175 = FACE_OUTER_BOUND ( 'NONE', #163, .T. ) ;
ENDSEC;
END-ISO-10303-21;
