ISO-10303-21;
HEADER;
FILE_DESCRIPTION (( 'STEP AP203' ),
    '1' );
FILE_NAME ('20104-E0W.STEP',
    '2009-09-14T20:24:10',
    ( 'Admin' ),
    ( 'Thorlabs, Inc.' ),
    'SwSTEP 2.0',
    'SolidWorks 2007',
    '' );
FILE_SCHEMA (( 'CONFIG_CONTROL_DESIGN' ));
ENDSEC;

DATA;
#1 = ADVANCED_FACE ( 'NONE', ( #92 ), #18, .T. ) ;
#2 = EDGE_LOOP ( 'NONE', ( #117, #54, #113 ) ) ;
#3 = DIRECTION ( 'NONE',  ( 0.0000000000000000000, 1.000000000000000000, 3.073328992872296400E-016 ) ) ;
#4 = DIRECTION ( 'NONE',  ( 0.0000000000000000000, 3.061515884555942700E-016, -1.000000000000000000 ) ) ;
#5 = AXIS2_PLACEMENT_3D ( 'NONE', #19, #4, #3 ) ;
#6 = MANIFOLD_SOLID_BREP ( 'NONE', #115 ) ;
#7 = DIRECTION ( 'NONE',  ( 1.000000000000000000, 0.0000000000000000000, 0.0000000000000000000 ) ) ;
#8 = DIRECTION ( 'NONE',  ( 0.0000000000000000000, 0.0000000000000000000, 1.000000000000000000 ) ) ;
#9 = AXIS2_PLACEMENT_3D ( 'NONE', #35, #8, #7 ) ;
#10 = ORIENTED_EDGE ( 'NONE', *, *, #114, .T. ) ;
#11 = ORIENTED_EDGE ( 'NONE', *, *, #90, .T. ) ;
#12 = ADVANCED_FACE ( 'NONE', ( #112 ), #47, .T. ) ;
#13 = FACE_OUTER_BOUND ( 'NONE', #108, .T. ) ;
#14 = DIRECTION ( 'NONE',  ( 0.0000000000000000000, 3.061515884555942700E-016, -1.000000000000000000 ) ) ;
#15 = VECTOR ( 'NONE', #14, 1000.000000000000000 ) ;
#16 = CARTESIAN_POINT ( 'NONE',  ( 1.555250069354419100E-015, -12.69999999999999900, -1.530000000000004000 ) ) ;
#17 = LINE ( 'NONE', #16, #15 ) ;
#18 = CYLINDRICAL_SURFACE ( 'NONE', #5, 12.69999999999999900 ) ;
#19 = CARTESIAN_POINT ( 'NONE',  ( 0.0000000000000000000, 8.449783841374391000E-017, -1.530000000000000000 ) ) ;
#20 = EDGE_CURVE ( 'NONE', #86, #99, #110, .T. ) ;
#21 = ADVANCED_BREP_SHAPE_REPRESENTATION ( '20104-E0W', ( #6, #9 ), #22 ) ;
#22 =( GEOMETRIC_REPRESENTATION_CONTEXT ( 3 ) GLOBAL_UNCERTAINTY_ASSIGNED_CONTEXT ( ( #83 ) ) GLOBAL_UNIT_ASSIGNED_CONTEXT ( ( #93, #85, #84 ) ) REPRESENTATION_CONTEXT ( 'NONE', 'WORKASPACE' ) );
#23 = ADVANCED_FACE ( 'NONE', ( #58 ), #29, .T. ) ;
#24 = EDGE_CURVE ( 'NONE', #55, #57, #44, .T. ) ;
#25 = ORIENTED_EDGE ( 'NONE', *, *, #63, .F. ) ;
#26 = DIRECTION ( 'NONE',  ( 0.0000000000000000000, 1.000000000000000000, 3.637737796777010200E-016 ) ) ;
#27 = DIRECTION ( 'NONE',  ( 1.000000000000000000, 0.0000000000000000000, 0.0000000000000000000 ) ) ;
#28 = AXIS2_PLACEMENT_3D ( 'NONE', #111, #27, #26 ) ;
#29 = SPHERICAL_SURFACE ( 'NONE', #28, 76.29900000000000700 ) ;
#30 = DIRECTION ( 'NONE',  ( 0.0000000000000000000, 1.000000000000000000, 3.073328992872296400E-016 ) ) ;
#31 = DIRECTION ( 'NONE',  ( 0.0000000000000000000, 3.061515884555942700E-016, -1.000000000000000000 ) ) ;
#32 = AXIS2_PLACEMENT_3D ( 'NONE', #52, #31, #30 ) ;
#33 = CIRCLE ( 'NONE', #32, 12.69999999999999900 ) ;
#34 = DIRECTION ( 'NONE',  ( 0.0000000000000000000, 1.000000000000000000, 3.073328992872296400E-016 ) ) ;
#35 = CARTESIAN_POINT ( 'NONE',  ( 0.0000000000000000000, 0.0000000000000000000, 0.0000000000000000000 ) ) ;
#36 = DIRECTION ( 'NONE',  ( 0.0000000000000000000, 3.061515884555942700E-016, -1.000000000000000000 ) ) ;
#37 = VECTOR ( 'NONE', #36, 1000.000000000000000 ) ;
#38 = CARTESIAN_POINT ( 'NONE',  ( 0.0000000000000000000, 12.69999999999999900, -1.529999999999996300 ) ) ;
#39 = LINE ( 'NONE', #38, #37 ) ;
#40 = DIRECTION ( 'NONE',  ( 0.0000000000000000000, 1.000000000000000000, 3.073328992872296400E-016 ) ) ;
#41 = DIRECTION ( 'NONE',  ( 0.0000000000000000000, 3.061515884555942700E-016, -1.000000000000000000 ) ) ;
#42 = CARTESIAN_POINT ( 'NONE',  ( 0.0000000000000000000, 8.449783841374510500E-017, -1.530000000000004000 ) ) ;
#43 = AXIS2_PLACEMENT_3D ( 'NONE', #42, #78, #77 ) ;
#44 = CIRCLE ( 'NONE', #43, 12.69999999999999900 ) ;
#45 = FACE_OUTER_BOUND ( 'NONE', #88, .T. ) ;
#46 = ADVANCED_FACE ( 'NONE', ( #45 ), #74, .T. ) ;
#47 = SPHERICAL_SURFACE ( 'NONE', #82, 76.29900000000000700 ) ;
#48 = DIRECTION ( 'NONE',  ( 0.0000000000000000000, 3.061515884555942700E-016, -1.000000000000000000 ) ) ;
#49 = CARTESIAN_POINT ( 'NONE',  ( 0.0000000000000000000, 8.449783841374510500E-017, -1.530000000000004000 ) ) ;
#50 = AXIS2_PLACEMENT_3D ( 'NONE', #49, #48, #34 ) ;
#51 = CIRCLE ( 'NONE', #50, 12.69999999999999900 ) ;
#52 = CARTESIAN_POINT ( 'NONE',  ( 0.0000000000000000000, -5.264630810858499900E-016, 0.4656157097914603900 ) ) ;
#53 = CARTESIAN_POINT ( 'NONE',  ( 0.0000000000000000000, -1.019595004128972800E-014, 1.530000000000003600 ) ) ;
#54 = ORIENTED_EDGE ( 'NONE', *, *, #20, .T. ) ;
#55 = VERTEX_POINT ( 'NONE', #75 ) ;
#56 = ORIENTED_EDGE ( 'NONE', *, *, #90, .F. ) ;
#57 = VERTEX_POINT ( 'NONE', #120 ) ;
#58 = FACE_OUTER_BOUND ( 'NONE', #2, .T. ) ;
#59 = DIRECTION ( 'NONE',  ( 0.0000000000000000000, 0.0000000000000000000, 1.000000000000000000 ) ) ;
#60 = DIRECTION ( 'NONE',  ( -1.000000000000000000, 0.0000000000000000000, 0.0000000000000000000 ) ) ;
#61 = AXIS2_PLACEMENT_3D ( 'NONE', #109, #60, #59 ) ;
#62 = ORIENTED_EDGE ( 'NONE', *, *, #63, .T. ) ;
#63 = EDGE_CURVE ( 'NONE', #100, #55, #17, .T. ) ;
#64 = ADVANCED_FACE ( 'NONE', ( #13 ), #105, .T. ) ;
#65 = EDGE_CURVE ( 'NONE', #86, #100, #97, .T. ) ;
#66 = ORIENTED_EDGE ( 'NONE', *, *, #20, .F. ) ;
#67 = CARTESIAN_POINT ( 'NONE',  ( 0.0000000000000000000, -5.264630810858499900E-016, 0.4656157097914603900 ) ) ;
#68 = AXIS2_PLACEMENT_3D ( 'NONE', #67, #41, #40 ) ;
#69 = CIRCLE ( 'NONE', #68, 12.69999999999999900 ) ;
#70 = CARTESIAN_POINT ( 'NONE',  ( 1.555250069354417300E-015, -12.69999999999999900, 0.4656157097914673200 ) ) ;
#71 = CARTESIAN_POINT ( 'NONE',  ( 0.0000000000000000000, 12.69999999999998500, 0.4656157097914712100 ) ) ;
#72 = ORIENTED_EDGE ( 'NONE', *, *, #98, .F. ) ;
#73 = AXIS2_PLACEMENT_3D ( 'NONE', #76, #122, #121 ) ;
#74 = CYLINDRICAL_SURFACE ( 'NONE', #73, 12.69999999999999900 ) ;
#75 = CARTESIAN_POINT ( 'NONE',  ( 1.555250069354419100E-015, -12.69999999999999900, -1.530000000000008000 ) ) ;
#76 = CARTESIAN_POINT ( 'NONE',  ( 0.0000000000000000000, 8.449783841374391000E-017, -1.530000000000000000 ) ) ;
#77 = DIRECTION ( 'NONE',  ( 0.0000000000000000000, 1.000000000000000000, 3.073328992872296400E-016 ) ) ;
#78 = DIRECTION ( 'NONE',  ( 0.0000000000000000000, 3.061515884555942700E-016, -1.000000000000000000 ) ) ;
#79 = DIRECTION ( 'NONE',  ( 0.0000000000000000000, 1.000000000000000000, 3.637737796777010200E-016 ) ) ;
#80 = DIRECTION ( 'NONE',  ( 1.000000000000000000, 0.0000000000000000000, 0.0000000000000000000 ) ) ;
#81 = CARTESIAN_POINT ( 'NONE',  ( 0.0000000000000000000, 8.491297996768980500E-015, -74.76900000000000500 ) ) ;
#82 = AXIS2_PLACEMENT_3D ( 'NONE', #81, #80, #79 ) ;
#83 = UNCERTAINTY_MEASURE_WITH_UNIT (LENGTH_MEASURE( 1.000000000000000100E-005 ), #93, 'distance_accuracy_value', 'NONE');
#84 =( NAMED_UNIT ( * ) SI_UNIT ( $, .STERADIAN. ) SOLID_ANGLE_UNIT ( ) );
#85 =( NAMED_UNIT ( * ) PLANE_ANGLE_UNIT ( ) SI_UNIT ( $, .RADIAN. ) );
#86 = VERTEX_POINT ( 'NONE', #53 ) ;
#87 = ORIENTED_EDGE ( 'NONE', *, *, #65, .T. ) ;
#88 = EDGE_LOOP ( 'NONE', ( #89, #62, #56, #123 ) ) ;
#89 = ORIENTED_EDGE ( 'NONE', *, *, #98, .T. ) ;
#90 = EDGE_CURVE ( 'NONE', #57, #55, #51, .T. ) ;
#91 = EDGE_LOOP ( 'NONE', ( #25, #10, #118, #116 ) ) ;
#92 = FACE_OUTER_BOUND ( 'NONE', #91, .T. ) ;
#93 =( LENGTH_UNIT ( ) NAMED_UNIT ( * ) SI_UNIT ( .MILLI., .METRE. ) );
#94 = DIRECTION ( 'NONE',  ( -1.224606353822377000E-016, 1.000000000000000000, 0.0000000000000000000 ) ) ;
#95 = DIRECTION ( 'NONE',  ( 1.000000000000000000, 1.224606353822377300E-016, 3.749151804555343100E-032 ) ) ;
#96 = AXIS2_PLACEMENT_3D ( 'NONE', #106, #95, #94 ) ;
#97 = CIRCLE ( 'NONE', #96, 76.29900000000000700 ) ;
#98 = EDGE_CURVE ( 'NONE', #99, #100, #33, .T. ) ;
#99 = VERTEX_POINT ( 'NONE', #71 ) ;
#100 = VERTEX_POINT ( 'NONE', #70 ) ;
#101 = DIRECTION ( 'NONE',  ( 0.0000000000000000000, 1.000000000000000000, 3.061515884555942700E-016 ) ) ;
#102 = DIRECTION ( 'NONE',  ( 0.0000000000000000000, 3.061515884555942700E-016, -1.000000000000000000 ) ) ;
#103 = CARTESIAN_POINT ( 'NONE',  ( 0.0000000000000000000, 8.449783841374450100E-017, -1.530000000000002000 ) ) ;
#104 = AXIS2_PLACEMENT_3D ( 'NONE', #103, #102, #101 ) ;
#105 = PLANE ( 'NONE',  #104 ) ;
#106 = CARTESIAN_POINT ( 'NONE',  ( 0.0000000000000000000, 8.491297996768980500E-015, -74.76900000000000500 ) ) ;
#107 = EDGE_LOOP ( 'NONE', ( #66, #87, #72 ) ) ;
#108 = EDGE_LOOP ( 'NONE', ( #11, #119 ) ) ;
#109 = CARTESIAN_POINT ( 'NONE',  ( 0.0000000000000000000, 8.491297996768980500E-015, -74.76900000000000500 ) ) ;
#110 = CIRCLE ( 'NONE', #61, 76.29900000000000700 ) ;
#111 = CARTESIAN_POINT ( 'NONE',  ( 0.0000000000000000000, 8.491297996768980500E-015, -74.76900000000000500 ) ) ;
#112 = FACE_OUTER_BOUND ( 'NONE', #107, .T. ) ;
#113 = ORIENTED_EDGE ( 'NONE', *, *, #114, .F. ) ;
#114 = EDGE_CURVE ( 'NONE', #100, #99, #69, .T. ) ;
#115 = CLOSED_SHELL ( 'NONE', ( #46, #12, #64, #23, #1 ) ) ;
#116 = ORIENTED_EDGE ( 'NONE', *, *, #24, .F. ) ;
#117 = ORIENTED_EDGE ( 'NONE', *, *, #65, .F. ) ;
#118 = ORIENTED_EDGE ( 'NONE', *, *, #124, .T. ) ;
#119 = ORIENTED_EDGE ( 'NONE', *, *, #24, .T. ) ;
#120 = CARTESIAN_POINT ( 'NONE',  ( 0.0000000000000000000, 12.69999999999999900, -1.530000000000000000 ) ) ;
#121 = DIRECTION ( 'NONE',  ( 0.0000000000000000000, 1.000000000000000000, 3.073328992872296400E-016 ) ) ;
#122 = DIRECTION ( 'NONE',  ( 0.0000000000000000000, 3.061515884555942700E-016, -1.000000000000000000 ) ) ;
#123 = ORIENTED_EDGE ( 'NONE', *, *, #124, .F. ) ;
#124 = EDGE_CURVE ( 'NONE', #99, #57, #39, .T. ) ;
#125 = APPLICATION_PROTOCOL_DEFINITION ( 'international standard', 'config_control_design', 1994, #126 ) ;
#126 = APPLICATION_CONTEXT ( 'configuration controlled 3d designs of mechanical parts and assemblies' ) ;
#127 = APPROVAL_DATE_TIME ( #137, #139 ) ;
#128 = CALENDAR_DATE ( 2009, 14, 9 ) ;
#129 = LOCAL_TIME ( 16, 24, 10.00000000000000000, #130 ) ;
#130 = COORDINATED_UNIVERSAL_TIME_OFFSET ( 5, 0, .BEHIND. ) ;
#131 = APPROVAL_PERSON_ORGANIZATION ( #141, #139, #138 ) ;
#132 = PRODUCT_DEFINITION_SHAPE ( 'NONE', 'NONE',  #142 ) ;
#133 = DATE_AND_TIME ( #134, #135 ) ;
#134 = CALENDAR_DATE ( 2009, 14, 9 ) ;
#135 = LOCAL_TIME ( 16, 24, 10.00000000000000000, #136 ) ;
#136 = COORDINATED_UNIVERSAL_TIME_OFFSET ( 5, 0, .BEHIND. ) ;
#137 = DATE_AND_TIME ( #128, #129 ) ;
#138 = APPROVAL_ROLE ( '' ) ;
#139 = APPROVAL ( #140, 'UNSPECIFIED' ) ;
#140 = APPROVAL_STATUS ( 'not_yet_approved' ) ;
#141 = PERSON_AND_ORGANIZATION ( #161, #175 ) ;
#142 = PRODUCT_DEFINITION ( 'UNKNOWN', '', #158, #199 ) ;
#143 = DATE_AND_TIME ( #195, #196 ) ;
#144 = APPROVAL_ROLE ( '' ) ;
#145 = APPROVAL ( #146, 'UNSPECIFIED' ) ;
#146 = APPROVAL_STATUS ( 'not_yet_approved' ) ;
#147 = PERSON_AND_ORGANIZATION ( #161, #175 ) ;
#148 = CC_DESIGN_DATE_AND_TIME_ASSIGNMENT ( #150, #149, ( #165 ) ) ;
#149 = DATE_TIME_ROLE ( 'classification_date' ) ;
#150 = DATE_AND_TIME ( #151, #152 ) ;
#151 = CALENDAR_DATE ( 2009, 14, 9 ) ;
#152 = LOCAL_TIME ( 16, 24, 10.00000000000000000, #153 ) ;
#153 = COORDINATED_UNIVERSAL_TIME_OFFSET ( 5, 0, .BEHIND. ) ;
#154 = CC_DESIGN_PERSON_AND_ORGANIZATION_ASSIGNMENT ( #156, #155, ( #142 ) ) ;
#155 = PERSON_AND_ORGANIZATION_ROLE ( 'creator' ) ;
#156 = PERSON_AND_ORGANIZATION ( #161, #175 ) ;
#157 = CC_DESIGN_APPROVAL ( #139, ( #142 ) ) ;
#158 = PRODUCT_DEFINITION_FORMATION_WITH_SPECIFIED_SOURCE ( 'ANY', '', #187, .NOT_KNOWN. ) ;
#159 = CC_DESIGN_DATE_AND_TIME_ASSIGNMENT ( #133, #160, ( #142 ) ) ;
#160 = DATE_TIME_ROLE ( 'creation_date' ) ;
#161 = PERSON ( 'UNSPECIFIED', 'UNSPECIFIED', 'UNSPECIFIED', ('UNSPECIFIED'), ('UNSPECIFIED'), ('UNSPECIFIED') ) ;
#162 = CC_DESIGN_PERSON_AND_ORGANIZATION_ASSIGNMENT ( #164, #163, ( #165 ) ) ;
#163 = PERSON_AND_ORGANIZATION_ROLE ( 'classification_officer' ) ;
#164 = PERSON_AND_ORGANIZATION ( #161, #175 ) ;
#165 = SECURITY_CLASSIFICATION ( '', '', #166 ) ;
#166 = SECURITY_CLASSIFICATION_LEVEL ( 'unclassified' ) ;
#167 = CC_DESIGN_PERSON_AND_ORGANIZATION_ASSIGNMENT ( #169, #168, ( #158 ) ) ;
#168 = PERSON_AND_ORGANIZATION_ROLE ( 'design_supplier' ) ;
#169 = PERSON_AND_ORGANIZATION ( #161, #175 ) ;
#170 = CC_DESIGN_PERSON_AND_ORGANIZATION_ASSIGNMENT ( #172, #171, ( #158 ) ) ;
#171 = PERSON_AND_ORGANIZATION_ROLE ( 'creator' ) ;
#172 = PERSON_AND_ORGANIZATION ( #161, #175 ) ;
#173 = CC_DESIGN_APPROVAL ( #183, ( #158 ) ) ;
#174 = SHAPE_DEFINITION_REPRESENTATION ( #132, #21 ) ;
#175 = ORGANIZATION ( 'UNSPECIFIED', 'UNSPECIFIED', '' ) ;
#176 = APPROVAL_DATE_TIME ( #177, #183 ) ;
#177 = DATE_AND_TIME ( #178, #179 ) ;
#178 = CALENDAR_DATE ( 2009, 14, 9 ) ;
#179 = LOCAL_TIME ( 16, 24, 10.00000000000000000, #180 ) ;
#180 = COORDINATED_UNIVERSAL_TIME_OFFSET ( 5, 0, .BEHIND. ) ;
#181 = APPROVAL_PERSON_ORGANIZATION ( #185, #183, #182 ) ;
#182 = APPROVAL_ROLE ( '' ) ;
#183 = APPROVAL ( #184, 'UNSPECIFIED' ) ;
#184 = APPROVAL_STATUS ( 'not_yet_approved' ) ;
#185 = PERSON_AND_ORGANIZATION ( #161, #175 ) ;
#186 = CC_DESIGN_PERSON_AND_ORGANIZATION_ASSIGNMENT ( #190, #189, ( #187 ) ) ;
#187 = PRODUCT ( '20104-E0W', '20104-E0W', '', ( #188 ) ) ;
#188 = MECHANICAL_CONTEXT ( 'NONE', #126, 'mechanical' ) ;
#189 = PERSON_AND_ORGANIZATION_ROLE ( 'design_owner' ) ;
#190 = PERSON_AND_ORGANIZATION ( #161, #175 ) ;
#191 = PRODUCT_RELATED_PRODUCT_CATEGORY ( 'detail', '', ( #187 ) ) ;
#192 = CC_DESIGN_SECURITY_CLASSIFICATION ( #165, ( #158 ) ) ;
#193 = CC_DESIGN_APPROVAL ( #145, ( #165 ) ) ;
#194 = APPROVAL_DATE_TIME ( #143, #145 ) ;
#195 = CALENDAR_DATE ( 2009, 14, 9 ) ;
#196 = LOCAL_TIME ( 16, 24, 10.00000000000000000, #197 ) ;
#197 = COORDINATED_UNIVERSAL_TIME_OFFSET ( 5, 0, .BEHIND. ) ;
#198 = APPROVAL_PERSON_ORGANIZATION ( #147, #145, #144 ) ;
#199 = DESIGN_CONTEXT ( 'detailed design', #201, 'design' ) ;
#200 = APPLICATION_PROTOCOL_DEFINITION ( 'international standard', 'config_control_design', 1994, #201 ) ;
#201 = APPLICATION_CONTEXT ( 'configuration controlled 3d designs of mechanical parts and assemblies' ) ;
ENDSEC;
END-ISO-10303-21;
