ISO-10303-21;
HEADER;
FILE_DESCRIPTION (( 'STEP AP203' ),
    '1' );
FILE_NAME ('step_65603.step',
    '2014-06-05T18:40:29',
    ( '' ),
    ( '' ),
    'SwSTEP 2.0',
    'SolidWorks 2014',
    '' );
FILE_SCHEMA (( 'CONFIG_CONTROL_DESIGN' ));
ENDSEC;

DATA;
#1 = CC_DESIGN_APPROVAL ( #5, ( #13 ) ) ;
#2 = DIRECTION ( 'NONE',  ( -1.000000000000000000, -2.775557561562891800E-016, 0.0000000000000000000 ) ) ;
#3 = CARTESIAN_POINT ( 'NONE',  ( 0.0000000000000000000, 50.00000000000000000, 50.00000000000000000 ) ) ;
#4 = ORIENTED_EDGE ( 'NONE', *, *, #173, .T. ) ;
#5 = APPROVAL ( #288, 'UNSPECIFIED' ) ;
#6 = CARTESIAN_POINT ( 'NONE',  ( 0.0000000000000000000, 0.0000000000000000000, 50.00000000000000000 ) ) ;
#7 = ORIENTED_EDGE ( 'NONE', *, *, #292, .T. ) ;
#8 = CC_DESIGN_DATE_AND_TIME_ASSIGNMENT ( #233, #261, ( #13 ) ) ;
#9 = ORIENTED_EDGE ( 'NONE', *, *, #268, .T. ) ;
#10 = FACE_OUTER_BOUND ( 'NONE', #128, .T. ) ;
#11 = CC_DESIGN_PERSON_AND_ORGANIZATION_ASSIGNMENT ( #135, #23, ( #13 ) ) ;
#12 = ADVANCED_FACE ( 'NONE', ( #225 ), #215, .F. ) ;
#13 = SECURITY_CLASSIFICATION ( '', '', #59 ) ;
#14 = PERSON_AND_ORGANIZATION ( #277, #36 ) ;
#15 = VERTEX_POINT ( 'NONE', #118 ) ;
#16 = PLANE ( 'NONE',  #102 ) ;
#17 = APPROVAL_DATE_TIME ( #167, #5 ) ;
#18 = CC_DESIGN_PERSON_AND_ORGANIZATION_ASSIGNMENT ( #254, #140, ( #37 ) ) ;
#19 = EDGE_LOOP ( 'NONE', ( #103, #49, #7 ) ) ;
#20 = CC_DESIGN_PERSON_AND_ORGANIZATION_ASSIGNMENT ( #259, #28, ( #37 ) ) ;
#21 = PERSON_AND_ORGANIZATION ( #277, #36 ) ;
#22 = DIRECTION ( 'NONE',  ( -1.000000000000000000, 0.0000000000000000000, 0.0000000000000000000 ) ) ;
#23 = PERSON_AND_ORGANIZATION_ROLE ( 'classification_officer' ) ;
#24 = CARTESIAN_POINT ( 'NONE',  ( 0.0000000000000000000, 50.00000000000000000, 0.0000000000000000000 ) ) ;
#25 = DIRECTION ( 'NONE',  ( -0.7071067811865474600, -0.7071067811865474600, -0.0000000000000000000 ) ) ;
#26 = CC_DESIGN_APPROVAL ( #33, ( #37 ) ) ;
#27 = CARTESIAN_POINT ( 'NONE',  ( 50.00000000000001400, 9.387407991721742200E-015, 0.0000000000000000000 ) ) ;
#28 = PERSON_AND_ORGANIZATION_ROLE ( 'creator' ) ;
#29 = VERTEX_POINT ( 'NONE', #195 ) ;
#30 = CARTESIAN_POINT ( 'NONE',  ( 50.00000000000000000, 50.00000000000000000, 50.00000000000000000 ) ) ;
#31 = DIRECTION ( 'NONE',  ( 1.000000000000000000, 0.0000000000000000000, 0.0000000000000000000 ) ) ;
#32 = FACE_OUTER_BOUND ( 'NONE', #154, .T. ) ;
#33 = APPROVAL ( #321, 'UNSPECIFIED' ) ;
#34 = DIRECTION ( 'NONE',  ( 1.000000000000000000, 0.0000000000000000000, -0.0000000000000000000 ) ) ;
#35 = LINE ( 'NONE', #238, #109 ) ;
#36 = ORGANIZATION ( 'UNSPECIFIED', 'UNSPECIFIED', '' ) ;
#37 = PRODUCT_DEFINITION_FORMATION_WITH_SPECIFIED_SOURCE ( 'ANY', '', #168, .NOT_KNOWN. ) ;
#38 = ORIENTED_EDGE ( 'NONE', *, *, #276, .T. ) ;
#39 = VECTOR ( 'NONE', #133, 1000.000000000000000 ) ;
#40 = DIRECTION ( 'NONE',  ( -0.0000000000000000000, -0.0000000000000000000, -1.000000000000000000 ) ) ;
#41 = VECTOR ( 'NONE', #178, 1000.000000000000000 ) ;
#42 = DIRECTION ( 'NONE',  ( -0.7071067811865474600, -0.7071067811865474600, -0.0000000000000000000 ) ) ;
#43 = ORIENTED_EDGE ( 'NONE', *, *, #186, .F. ) ;
#44 = ORIENTED_EDGE ( 'NONE', *, *, #284, .F. ) ;
#45 = CC_DESIGN_DATE_AND_TIME_ASSIGNMENT ( #74, #283, ( #63 ) ) ;
#46 = VECTOR ( 'NONE', #91, 1000.000000000000000 ) ;
#47 = CC_DESIGN_PERSON_AND_ORGANIZATION_ASSIGNMENT ( #237, #278, ( #63 ) ) ;
#48 = ORIENTED_EDGE ( 'NONE', *, *, #275, .F. ) ;
#49 = ORIENTED_EDGE ( 'NONE', *, *, #296, .T. ) ;
#50 = PRODUCT_DEFINITION_SHAPE ( 'NONE', 'NONE',  #63 ) ;
#51 = LINE ( 'NONE', #30, #54 ) ;
#52 = DIRECTION ( 'NONE',  ( 0.0000000000000000000, -0.0000000000000000000, -1.000000000000000000 ) ) ;
#53 = CC_DESIGN_APPROVAL ( #60, ( #63 ) ) ;
#54 = VECTOR ( 'NONE', #176, 1000.000000000000000 ) ;
#55 = LINE ( 'NONE', #281, #224 ) ;
#56 = ORIENTED_EDGE ( 'NONE', *, *, #122, .F. ) ;
#57 = LINE ( 'NONE', #149, #270 ) ;
#58 = LINE ( 'NONE', #88, #39 ) ;
#59 = SECURITY_CLASSIFICATION_LEVEL ( 'unclassified' ) ;
#60 = APPROVAL ( #89, 'UNSPECIFIED' ) ;
#61 = ORIENTED_EDGE ( 'NONE', *, *, #296, .F. ) ;
#62 = DIRECTION ( 'NONE',  ( -1.877481598344347900E-016, 1.000000000000000000, 0.0000000000000000000 ) ) ;
#63 = PRODUCT_DEFINITION ( 'UNKNOWN', '', #37, #220 ) ;
#64 = DIRECTION ( 'NONE',  ( -0.0000000000000000000, -0.0000000000000000000, -1.000000000000000000 ) ) ;
#65 = ORIENTED_EDGE ( 'NONE', *, *, #318, .T. ) ;
#66 = DIRECTION ( 'NONE',  ( 0.0000000000000000000, 0.0000000000000000000, -1.000000000000000000 ) ) ;
#67 = CC_DESIGN_PERSON_AND_ORGANIZATION_ASSIGNMENT ( #85, #251, ( #168 ) ) ;
#68 = CARTESIAN_POINT ( 'NONE',  ( 0.0000000000000000000, 0.0000000000000000000, 50.00000000000000000 ) ) ;
#69 = CARTESIAN_POINT ( 'NONE',  ( 0.0000000000000000000, 0.0000000000000000000, 0.0000000000000000000 ) ) ;
#70 = AXIS2_PLACEMENT_3D ( 'NONE', #69, #87, #31 ) ;
#71 = EDGE_LOOP ( 'NONE', ( #120, #194, #56, #38 ) ) ;
#72 = DIRECTION ( 'NONE',  ( -1.000000000000000000, 0.0000000000000000000, 0.0000000000000000000 ) ) ;
#73 = APPLICATION_PROTOCOL_DEFINITION ( 'international standard', 'config_control_design', 1994, #286 ) ;
#74 = DATE_AND_TIME ( #94, #110 ) ;
#75 = ORIENTED_EDGE ( 'NONE', *, *, #293, .F. ) ;
#76 = PRODUCT_RELATED_PRODUCT_CATEGORY ( 'detail', '', ( #168 ) ) ;
#77 = ADVANCED_FACE ( 'NONE', ( #301 ), #222, .F. ) ;
#78 = EDGE_CURVE ( 'NONE', #246, #221, #169, .T. ) ;
#79 = DIRECTION ( 'NONE',  ( 0.0000000000000000000, 0.0000000000000000000, -1.000000000000000000 ) ) ;
#80 = SHAPE_DEFINITION_REPRESENTATION ( #50, #121 ) ;
#81 = LINE ( 'NONE', #68, #41 ) ;
#82 = CARTESIAN_POINT ( 'NONE',  ( 0.0000000000000000000, 0.0000000000000000000, 50.00000000000000000 ) ) ;
#83 = CARTESIAN_POINT ( 'NONE',  ( 50.00000000000000000, 50.00000000000000000, 50.00000000000000000 ) ) ;
#84 = EDGE_CURVE ( 'NONE', #213, #112, #229, .T. ) ;
#85 = PERSON_AND_ORGANIZATION ( #277, #36 ) ;
#86 = CARTESIAN_POINT ( 'NONE',  ( 0.0000000000000000000, 50.00000000000000000, 0.0000000000000000000 ) ) ;
#87 = DIRECTION ( 'NONE',  ( 0.0000000000000000000, 0.0000000000000000000, 1.000000000000000000 ) ) ;
#88 = CARTESIAN_POINT ( 'NONE',  ( 50.00000000000001400, 9.387407991721742200E-015, 50.00000000000000000 ) ) ;
#89 = APPROVAL_STATUS ( 'not_yet_approved' ) ;
#90 = DIRECTION ( 'NONE',  ( 0.7071067811865475700, -0.7071067811865475700, 0.0000000000000000000 ) ) ;
#91 = DIRECTION ( 'NONE',  ( -1.000000000000000000, -0.0000000000000000000, -0.0000000000000000000 ) ) ;
#92 = EDGE_LOOP ( 'NONE', ( #209, #43, #44 ) ) ;
#93 = MECHANICAL_CONTEXT ( 'NONE', #208, 'mechanical' ) ;
#94 = CALENDAR_DATE ( 2014, 5, 6 ) ;
#95 = CC_DESIGN_SECURITY_CLASSIFICATION ( #13, ( #37 ) ) ;
#96 = DIRECTION ( 'NONE',  ( -0.0000000000000000000, -1.000000000000000000, -0.0000000000000000000 ) ) ;
#97 = VERTEX_POINT ( 'NONE', #201 ) ;
#98 = CARTESIAN_POINT ( 'NONE',  ( 0.0000000000000000000, 0.0000000000000000000, 50.00000000000000000 ) ) ;
#99 = CARTESIAN_POINT ( 'NONE',  ( 0.0000000000000000000, 0.0000000000000000000, 0.0000000000000000000 ) ) ;
#100 = VECTOR ( 'NONE', #40, 1000.000000000000000 ) ;
#101 = DIRECTION ( 'NONE',  ( 0.0000000000000000000, 0.0000000000000000000, -1.000000000000000000 ) ) ;
#102 = AXIS2_PLACEMENT_3D ( 'NONE', #125, #79, #22 ) ;
#103 = ORIENTED_EDGE ( 'NONE', *, *, #252, .T. ) ;
#104 = ORIENTED_EDGE ( 'NONE', *, *, #272, .F. ) ;
#105 =( GEOMETRIC_REPRESENTATION_CONTEXT ( 3 ) GLOBAL_UNCERTAINTY_ASSIGNED_CONTEXT ( ( #184 ) ) GLOBAL_UNIT_ASSIGNED_CONTEXT ( ( #180, #152, #282 ) ) REPRESENTATION_CONTEXT ( 'NONE', 'WORKASPACE' ) );
#106 = ADVANCED_FACE ( 'NONE', ( #314 ), #155, .F. ) ;
#107 = VECTOR ( 'NONE', #218, 1000.000000000000000 ) ;
#108 = AXIS2_PLACEMENT_3D ( 'NONE', #114, #179, #52 ) ;
#109 = VECTOR ( 'NONE', #164, 1000.000000000000000 ) ;
#110 = LOCAL_TIME ( 11, 40, 29.00000000000000000, #153 ) ;
#111 = PLANE ( 'NONE',  #189 ) ;
#112 = VERTEX_POINT ( 'NONE', #27 ) ;
#113 = CARTESIAN_POINT ( 'NONE',  ( 0.0000000000000000000, 0.0000000000000000000, 50.00000000000000000 ) ) ;
#114 = CARTESIAN_POINT ( 'NONE',  ( 0.0000000000000000000, 50.00000000000000000, 50.00000000000000000 ) ) ;
#115 = APPROVAL_ROLE ( '' ) ;
#116 = AXIS2_PLACEMENT_3D ( 'NONE', #147, #62, #181 ) ;
#117 = LINE ( 'NONE', #6, #211 ) ;
#118 = CARTESIAN_POINT ( 'NONE',  ( 50.00000000000001400, 9.387407991721742200E-015, 50.00000000000000000 ) ) ;
#119 = VERTEX_POINT ( 'NONE', #82 ) ;
#120 = ORIENTED_EDGE ( 'NONE', *, *, #186, .T. ) ;
#121 = ADVANCED_BREP_SHAPE_REPRESENTATION ( 'step_65603', ( #306, #239, #70 ), #105 ) ;
#122 = EDGE_CURVE ( 'NONE', #191, #119, #117, .T. ) ;
#123 = ORIENTED_EDGE ( 'NONE', *, *, #275, .T. ) ;
#124 = CLOSED_SHELL ( 'NONE', ( #271, #182, #207, #126, #77 ) ) ;
#125 = CARTESIAN_POINT ( 'NONE',  ( 0.0000000000000000000, 0.0000000000000000000, 0.0000000000000000000 ) ) ;
#126 = ADVANCED_FACE ( 'NONE', ( #305 ), #243, .T. ) ;
#127 = VERTEX_POINT ( 'NONE', #99 ) ;
#128 = EDGE_LOOP ( 'NONE', ( #65, #236, #61, #232 ) ) ;
#129 = PERSON_AND_ORGANIZATION ( #277, #36 ) ;
#130 = LOCAL_TIME ( 11, 40, 29.00000000000000000, #165 ) ;
#131 = VERTEX_POINT ( 'NONE', #320 ) ;
#132 = ORIENTED_EDGE ( 'NONE', *, *, #292, .F. ) ;
#133 = DIRECTION ( 'NONE',  ( 1.000000000000000000, 1.877481598344347700E-016, -0.0000000000000000000 ) ) ;
#134 = ORIENTED_EDGE ( 'NONE', *, *, #317, .F. ) ;
#135 = PERSON_AND_ORGANIZATION ( #277, #36 ) ;
#136 = ORIENTED_EDGE ( 'NONE', *, *, #287, .F. ) ;
#137 = VECTOR ( 'NONE', #145, 1000.000000000000000 ) ;
#138 = APPROVAL_PERSON_ORGANIZATION ( #129, #5, #115 ) ;
#139 = LINE ( 'NONE', #197, #241 ) ;
#140 = PERSON_AND_ORGANIZATION_ROLE ( 'design_supplier' ) ;
#141 = DIRECTION ( 'NONE',  ( 0.7071067811865474600, 0.7071067811865474600, 0.0000000000000000000 ) ) ;
#142 = ORIENTED_EDGE ( 'NONE', *, *, #276, .F. ) ;
#143 = DIRECTION ( 'NONE',  ( 0.0000000000000000000, 0.0000000000000000000, 1.000000000000000000 ) ) ;
#144 = APPROVAL_ROLE ( '' ) ;
#145 = DIRECTION ( 'NONE',  ( -1.000000000000000000, -0.0000000000000000000, -0.0000000000000000000 ) ) ;
#146 = EDGE_LOOP ( 'NONE', ( #269, #134, #132, #312 ) ) ;
#147 = CARTESIAN_POINT ( 'NONE',  ( 50.00000000000001400, 9.387407991721742200E-015, 50.00000000000000000 ) ) ;
#148 = DIRECTION ( 'NONE',  ( 2.775557561562891800E-016, -1.000000000000000000, 0.0000000000000000000 ) ) ;
#149 = CARTESIAN_POINT ( 'NONE',  ( 0.0000000000000000000, 0.0000000000000000000, 0.0000000000000000000 ) ) ;
#150 = AXIS2_PLACEMENT_3D ( 'NONE', #157, #101, #72 ) ;
#151 = CARTESIAN_POINT ( 'NONE',  ( 50.00000000000000000, 50.00000000000000000, 50.00000000000000000 ) ) ;
#152 =( NAMED_UNIT ( * ) PLANE_ANGLE_UNIT ( ) SI_UNIT ( $, .RADIAN. ) );
#153 = COORDINATED_UNIVERSAL_TIME_OFFSET ( 7, 0, .BEHIND. ) ;
#154 = EDGE_LOOP ( 'NONE', ( #266, #136, #163, #311 ) ) ;
#155 = PLANE ( 'NONE',  #245 ) ;
#156 = PLANE ( 'NONE',  #108 ) ;
#157 = CARTESIAN_POINT ( 'NONE',  ( 0.0000000000000000000, 0.0000000000000000000, 50.00000000000000000 ) ) ;
#158 = VECTOR ( 'NONE', #42, 1000.000000000000100 ) ;
#159 = LINE ( 'NONE', #249, #297 ) ;
#160 = LINE ( 'NONE', #3, #46 ) ;
#161 = CARTESIAN_POINT ( 'NONE',  ( 0.0000000000000000000, 50.00000000000000000, 50.00000000000000000 ) ) ;
#162 = LINE ( 'NONE', #83, #100 ) ;
#163 = ORIENTED_EDGE ( 'NONE', *, *, #252, .F. ) ;
#164 = DIRECTION ( 'NONE',  ( -2.775557561562891800E-016, 1.000000000000000000, -0.0000000000000000000 ) ) ;
#165 = COORDINATED_UNIVERSAL_TIME_OFFSET ( 7, 0, .BEHIND. ) ;
#166 = LOCAL_TIME ( 11, 40, 29.00000000000000000, #307 ) ;
#167 = DATE_AND_TIME ( #299, #196 ) ;
#168 = PRODUCT ( 'step_65603', 'step_65603', '', ( #93 ) ) ;
#169 = LINE ( 'NONE', #255, #216 ) ;
#170 = DIRECTION ( 'NONE',  ( 1.000000000000000000, 0.0000000000000000000, 0.0000000000000000000 ) ) ;
#171 = DIRECTION ( 'NONE',  ( 0.7071067811865474600, 0.7071067811865474600, -0.0000000000000000000 ) ) ;
#172 = EDGE_LOOP ( 'NONE', ( #227, #142, #205, #206 ) ) ;
#173 = EDGE_CURVE ( 'NONE', #127, #29, #159, .T. ) ;
#174 = DIRECTION ( 'NONE',  ( -0.0000000000000000000, -0.0000000000000000000, -1.000000000000000000 ) ) ;
#175 = AXIS2_PLACEMENT_3D ( 'NONE', #113, #90, #141 ) ;
#176 = DIRECTION ( 'NONE',  ( -2.775557561562891800E-016, 1.000000000000000000, -0.0000000000000000000 ) ) ;
#177 = DIRECTION ( 'NONE',  ( 0.7071067811865474600, 0.7071067811865474600, -0.0000000000000000000 ) ) ;
#178 = DIRECTION ( 'NONE',  ( -0.0000000000000000000, -0.0000000000000000000, -1.000000000000000000 ) ) ;
#179 = DIRECTION ( 'NONE',  ( 0.0000000000000000000, -1.000000000000000000, 0.0000000000000000000 ) ) ;
#180 =( LENGTH_UNIT ( ) NAMED_UNIT ( * ) SI_UNIT ( .MILLI., .METRE. ) );
#181 = DIRECTION ( 'NONE',  ( -1.000000000000000000, -1.877481598344347900E-016, 0.0000000000000000000 ) ) ;
#182 = ADVANCED_FACE ( 'NONE', ( #10 ), #111, .F. ) ;
#183 = PLANE ( 'NONE',  #150 ) ;
#184 = UNCERTAINTY_MEASURE_WITH_UNIT (LENGTH_MEASURE( 1.000000000000000100E-005 ), #180, 'distance_accuracy_value', 'NONE');
#185 = LINE ( 'NONE', #303, #242 ) ;
#186 = EDGE_CURVE ( 'NONE', #257, #127, #57, .T. ) ;
#187 = VECTOR ( 'NONE', #171, 1000.000000000000100 ) ;
#188 = CARTESIAN_POINT ( 'NONE',  ( 50.00000000000000000, 50.00000000000000000, 0.0000000000000000000 ) ) ;
#189 = AXIS2_PLACEMENT_3D ( 'NONE', #214, #2, #148 ) ;
#190 = LINE ( 'NONE', #295, #300 ) ;
#191 = VERTEX_POINT ( 'NONE', #161 ) ;
#192 = CARTESIAN_POINT ( 'NONE',  ( 50.00000000000000000, 50.00000000000000000, 50.00000000000000000 ) ) ;
#193 = DATE_AND_TIME ( #203, #244 ) ;
#194 = ORIENTED_EDGE ( 'NONE', *, *, #268, .F. ) ;
#195 = CARTESIAN_POINT ( 'NONE',  ( 50.00000000000000000, 50.00000000000000000, 0.0000000000000000000 ) ) ;
#196 = LOCAL_TIME ( 11, 40, 29.00000000000000000, #313 ) ;
#197 = CARTESIAN_POINT ( 'NONE',  ( 0.0000000000000000000, 0.0000000000000000000, 50.00000000000000000 ) ) ;
#198 = CARTESIAN_POINT ( 'NONE',  ( 0.0000000000000000000, 0.0000000000000000000, 50.00000000000000000 ) ) ;
#199 = EDGE_LOOP ( 'NONE', ( #123, #285, #308 ) ) ;
#200 = LINE ( 'NONE', #151, #187 ) ;
#201 = CARTESIAN_POINT ( 'NONE',  ( 0.0000000000000000000, 0.0000000000000000000, 50.00000000000000000 ) ) ;
#202 = PLANE ( 'NONE',  #175 ) ;
#203 = CALENDAR_DATE ( 2014, 5, 6 ) ;
#204 = CALENDAR_DATE ( 2014, 5, 6 ) ;
#205 = ORIENTED_EDGE ( 'NONE', *, *, #267, .F. ) ;
#206 = ORIENTED_EDGE ( 'NONE', *, *, #272, .T. ) ;
#207 = ADVANCED_FACE ( 'NONE', ( #210 ), #202, .F. ) ;
#208 = APPLICATION_CONTEXT ( 'configuration controlled 3d designs of mechanical parts and assemblies' ) ;
#209 = ORIENTED_EDGE ( 'NONE', *, *, #173, .F. ) ;
#210 = FACE_OUTER_BOUND ( 'NONE', #146, .T. ) ;
#211 = VECTOR ( 'NONE', #315, 1000.000000000000000 ) ;
#212 = DIRECTION ( 'NONE',  ( -0.0000000000000000000, -0.0000000000000000000, -1.000000000000000000 ) ) ;
#213 = VERTEX_POINT ( 'NONE', #274 ) ;
#214 = CARTESIAN_POINT ( 'NONE',  ( 50.00000000000000000, 50.00000000000000000, 50.00000000000000000 ) ) ;
#215 = PLANE ( 'NONE',  #258 ) ;
#216 = VECTOR ( 'NONE', #174, 1000.000000000000000 ) ;
#217 = EDGE_LOOP ( 'NONE', ( #264, #75, #250 ) ) ;
#218 = DIRECTION ( 'NONE',  ( 1.000000000000000000, 1.877481598344347700E-016, -0.0000000000000000000 ) ) ;
#219 = CLOSED_SHELL ( 'NONE', ( #12, #294, #106, #228, #310 ) ) ;
#220 = DESIGN_CONTEXT ( 'detailed design', #286, 'design' ) ;
#221 = VERTEX_POINT ( 'NONE', #188 ) ;
#222 = PLANE ( 'NONE',  #256 ) ;
#223 = CARTESIAN_POINT ( 'NONE',  ( 0.0000000000000000000, 0.0000000000000000000, 0.0000000000000000000 ) ) ;
#224 = VECTOR ( 'NONE', #212, 1000.000000000000000 ) ;
#225 = FACE_OUTER_BOUND ( 'NONE', #260, .T. ) ;
#226 = AXIS2_PLACEMENT_3D ( 'NONE', #98, #143, #34 ) ;
#227 = ORIENTED_EDGE ( 'NONE', *, *, #284, .T. ) ;
#228 = ADVANCED_FACE ( 'NONE', ( #309 ), #183, .F. ) ;
#229 = LINE ( 'NONE', #240, #107 ) ;
#230 = DIRECTION ( 'NONE',  ( 0.0000000000000000000, 0.0000000000000000000, 1.000000000000000000 ) ) ;
#231 = LINE ( 'NONE', #198, #158 ) ;
#232 = ORIENTED_EDGE ( 'NONE', *, *, #287, .T. ) ;
#233 = DATE_AND_TIME ( #204, #166 ) ;
#234 = DIRECTION ( 'NONE',  ( 1.000000000000000000, 0.0000000000000000000, -0.0000000000000000000 ) ) ;
#235 = FACE_OUTER_BOUND ( 'NONE', #172, .T. ) ;
#236 = ORIENTED_EDGE ( 'NONE', *, *, #78, .F. ) ;
#237 = PERSON_AND_ORGANIZATION ( #277, #36 ) ;
#238 = CARTESIAN_POINT ( 'NONE',  ( 50.00000000000000000, 50.00000000000000000, 0.0000000000000000000 ) ) ;
#239 = MANIFOLD_SOLID_BREP ( 'Boss-Extrude2', #124 ) ;
#240 = CARTESIAN_POINT ( 'NONE',  ( 50.00000000000001400, 9.387407991721742200E-015, 0.0000000000000000000 ) ) ;
#241 = VECTOR ( 'NONE', #64, 1000.000000000000000 ) ;
#242 = VECTOR ( 'NONE', #25, 1000.000000000000100 ) ;
#243 = PLANE ( 'NONE',  #226 ) ;
#244 = LOCAL_TIME ( 11, 40, 29.00000000000000000, #302 ) ;
#245 = AXIS2_PLACEMENT_3D ( 'NONE', #253, #170, #66 ) ;
#246 = VERTEX_POINT ( 'NONE', #192 ) ;
#247 = DIRECTION ( 'NONE',  ( -0.0000000000000000000, -0.0000000000000000000, -1.000000000000000000 ) ) ;
#248 = DIRECTION ( 'NONE',  ( -0.7071067811865475700, 0.7071067811865475700, 0.0000000000000000000 ) ) ;
#249 = CARTESIAN_POINT ( 'NONE',  ( 50.00000000000000000, 50.00000000000000000, 0.0000000000000000000 ) ) ;
#250 = ORIENTED_EDGE ( 'NONE', *, *, #318, .F. ) ;
#251 = PERSON_AND_ORGANIZATION_ROLE ( 'design_owner' ) ;
#252 = EDGE_CURVE ( 'NONE', #97, #15, #58, .T. ) ;
#253 = CARTESIAN_POINT ( 'NONE',  ( 0.0000000000000000000, 0.0000000000000000000, 50.00000000000000000 ) ) ;
#254 = PERSON_AND_ORGANIZATION ( #277, #36 ) ;
#255 = CARTESIAN_POINT ( 'NONE',  ( 50.00000000000000000, 50.00000000000000000, 50.00000000000000000 ) ) ;
#256 = AXIS2_PLACEMENT_3D ( 'NONE', #223, #230, #234 ) ;
#257 = VERTEX_POINT ( 'NONE', #86 ) ;
#258 = AXIS2_PLACEMENT_3D ( 'NONE', #291, #248, #279 ) ;
#259 = PERSON_AND_ORGANIZATION ( #277, #36 ) ;
#260 = EDGE_LOOP ( 'NONE', ( #4, #104, #48, #9 ) ) ;
#261 = DATE_TIME_ROLE ( 'classification_date' ) ;
#262 = APPROVAL_DATE_TIME ( #193, #60 ) ;
#263 = APPLICATION_PROTOCOL_DEFINITION ( 'international standard', 'config_control_design', 1994, #208 ) ;
#264 = ORIENTED_EDGE ( 'NONE', *, *, #84, .F. ) ;
#265 = APPROVAL_DATE_TIME ( #273, #33 ) ;
#266 = ORIENTED_EDGE ( 'NONE', *, *, #84, .T. ) ;
#267 = EDGE_CURVE ( 'NONE', #131, #191, #160, .T. ) ;
#268 = EDGE_CURVE ( 'NONE', #119, #127, #139, .T. ) ;
#269 = ORIENTED_EDGE ( 'NONE', *, *, #293, .T. ) ;
#270 = VECTOR ( 'NONE', #96, 1000.000000000000000 ) ;
#271 = ADVANCED_FACE ( 'NONE', ( #32 ), #280, .F. ) ;
#272 = EDGE_CURVE ( 'NONE', #131, #29, #162, .T. ) ;
#273 = DATE_AND_TIME ( #298, #130 ) ;
#274 = CARTESIAN_POINT ( 'NONE',  ( 0.0000000000000000000, 0.0000000000000000000, 0.0000000000000000000 ) ) ;
#275 = EDGE_CURVE ( 'NONE', #119, #131, #200, .T. ) ;
#276 = EDGE_CURVE ( 'NONE', #191, #257, #190, .T. ) ;
#277 = PERSON ( 'UNSPECIFIED', 'UNSPECIFIED', 'UNSPECIFIED', ('UNSPECIFIED'), ('UNSPECIFIED'), ('UNSPECIFIED') ) ;
#278 = PERSON_AND_ORGANIZATION_ROLE ( 'creator' ) ;
#279 = DIRECTION ( 'NONE',  ( -0.7071067811865474600, -0.7071067811865474600, 0.0000000000000000000 ) ) ;
#280 = PLANE ( 'NONE',  #116 ) ;
#281 = CARTESIAN_POINT ( 'NONE',  ( 50.00000000000001400, 9.387407991721742200E-015, 50.00000000000000000 ) ) ;
#282 =( NAMED_UNIT ( * ) SI_UNIT ( $, .STERADIAN. ) SOLID_ANGLE_UNIT ( ) );
#283 = DATE_TIME_ROLE ( 'creation_date' ) ;
#284 = EDGE_CURVE ( 'NONE', #29, #257, #304, .T. ) ;
#285 = ORIENTED_EDGE ( 'NONE', *, *, #267, .T. ) ;
#286 = APPLICATION_CONTEXT ( 'configuration controlled 3d designs of mechanical parts and assemblies' ) ;
#287 = EDGE_CURVE ( 'NONE', #15, #112, #55, .T. ) ;
#288 = APPROVAL_STATUS ( 'not_yet_approved' ) ;
#289 = FACE_OUTER_BOUND ( 'NONE', #92, .T. ) ;
#290 = APPROVAL_PERSON_ORGANIZATION ( #21, #33, #144 ) ;
#291 = CARTESIAN_POINT ( 'NONE',  ( 50.00000000000000000, 50.00000000000000000, 50.00000000000000000 ) ) ;
#292 = EDGE_CURVE ( 'NONE', #246, #97, #231, .T. ) ;
#293 = EDGE_CURVE ( 'NONE', #221, #213, #185, .T. ) ;
#294 = ADVANCED_FACE ( 'NONE', ( #235 ), #156, .F. ) ;
#295 = CARTESIAN_POINT ( 'NONE',  ( 0.0000000000000000000, 50.00000000000000000, 50.00000000000000000 ) ) ;
#296 = EDGE_CURVE ( 'NONE', #15, #246, #51, .T. ) ;
#297 = VECTOR ( 'NONE', #177, 1000.000000000000100 ) ;
#298 = CALENDAR_DATE ( 2014, 5, 6 ) ;
#299 = CALENDAR_DATE ( 2014, 5, 6 ) ;
#300 = VECTOR ( 'NONE', #247, 1000.000000000000000 ) ;
#301 = FACE_OUTER_BOUND ( 'NONE', #217, .T. ) ;
#302 = COORDINATED_UNIVERSAL_TIME_OFFSET ( 7, 0, .BEHIND. ) ;
#303 = CARTESIAN_POINT ( 'NONE',  ( 0.0000000000000000000, 0.0000000000000000000, 0.0000000000000000000 ) ) ;
#304 = LINE ( 'NONE', #24, #137 ) ;
#305 = FACE_OUTER_BOUND ( 'NONE', #19, .T. ) ;
#306 = MANIFOLD_SOLID_BREP ( 'Boss-Extrude1', #219 ) ;
#307 = COORDINATED_UNIVERSAL_TIME_OFFSET ( 7, 0, .BEHIND. ) ;
#308 = ORIENTED_EDGE ( 'NONE', *, *, #122, .T. ) ;
#309 = FACE_OUTER_BOUND ( 'NONE', #199, .T. ) ;
#310 = ADVANCED_FACE ( 'NONE', ( #289 ), #16, .T. ) ;
#311 = ORIENTED_EDGE ( 'NONE', *, *, #317, .T. ) ;
#312 = ORIENTED_EDGE ( 'NONE', *, *, #78, .T. ) ;
#313 = COORDINATED_UNIVERSAL_TIME_OFFSET ( 7, 0, .BEHIND. ) ;
#314 = FACE_OUTER_BOUND ( 'NONE', #71, .T. ) ;
#315 = DIRECTION ( 'NONE',  ( -0.0000000000000000000, -1.000000000000000000, -0.0000000000000000000 ) ) ;
#316 = APPROVAL_PERSON_ORGANIZATION ( #14, #60, #319 ) ;
#317 = EDGE_CURVE ( 'NONE', #97, #213, #81, .T. ) ;
#318 = EDGE_CURVE ( 'NONE', #112, #221, #35, .T. ) ;
#319 = APPROVAL_ROLE ( '' ) ;
#320 = CARTESIAN_POINT ( 'NONE',  ( 50.00000000000000000, 50.00000000000000000, 50.00000000000000000 ) ) ;
#321 = APPROVAL_STATUS ( 'not_yet_approved' ) ;
ENDSEC;
END-ISO-10303-21;
