ISO-10303-21;
HEADER;
FILE_DESCRIPTION (( 'STEP AP214' ),
    '1' );
FILE_NAME ('4776-E0W.STEP',
    '2009-12-21T17:04:26',
    ( ' ' ),
    ( ' ' ),
    'SwSTEP 2.0',
    'SolidWorks 2009',
    '' );
FILE_SCHEMA (( 'AUTOMOTIVE_DESIGN' ));
ENDSEC;

DATA;
#1 = ORIENTED_EDGE ( 'NONE', *, *, #12, .T. ) ;
#2 = ADVANCED_FACE ( 'NONE', ( #71 ), #69, .T. ) ;
#3 = ORIENTED_EDGE ( 'NONE', *, *, #5, .T. ) ;
#4 = CLOSED_SHELL ( 'NONE', ( #57, #13, #20, #21, #2 ) ) ;
#5 = EDGE_CURVE ( 'NONE', #16, #17, #51, .T. ) ;
#6 = ORIENTED_EDGE ( 'NONE', *, *, #24, .F. ) ;
#7 = ORIENTED_EDGE ( 'NONE', *, *, #39, .F. ) ;
#8 = EDGE_LOOP ( 'NONE', ( #30, #3, #1, #7, #6 ) ) ;
#9 = EDGE_LOOP ( 'NONE', ( #84, #82, #38, #64 ) ) ;
#10 = VERTEX_POINT ( 'NONE', #76 ) ;
#11 = ORIENTED_EDGE ( 'NONE', *, *, #12, .F. ) ;
#12 = EDGE_CURVE ( 'NONE', #17, #10, #61, .T. ) ;
#13 = ADVANCED_FACE ( 'NONE', ( #93 ), #101, .F. ) ;
#14 = ORIENTED_EDGE ( 'NONE', *, *, #15, .F. ) ;
#15 = EDGE_CURVE ( 'NONE', #10, #83, #107, .T. ) ;
#16 = VERTEX_POINT ( 'NONE', #141 ) ;
#17 = VERTEX_POINT ( 'NONE', #140 ) ;
#18 = EDGE_CURVE ( 'NONE', #17, #16, #136, .T. ) ;
#19 = ORIENTED_EDGE ( 'NONE', *, *, #18, .T. ) ;
#20 = ADVANCED_FACE ( 'NONE', ( #126 ), #128, .F. ) ;
#21 = ADVANCED_FACE ( 'NONE', ( #144 ), #173, .F. ) ;
#22 = ORIENTED_EDGE ( 'NONE', *, *, #24, .T. ) ;
#23 = ORIENTED_EDGE ( 'NONE', *, *, #77, .F. ) ;
#24 = EDGE_CURVE ( 'NONE', #41, #36, #188, .T. ) ;
#25 = ORIENTED_EDGE ( 'NONE', *, *, #18, .F. ) ;
#26 = ORIENTED_EDGE ( 'NONE', *, *, #37, .T. ) ;
#27 = ORIENTED_EDGE ( 'NONE', *, *, #78, .T. ) ;
#28 = EDGE_LOOP ( 'NONE', ( #25, #29 ) ) ;
#29 = ORIENTED_EDGE ( 'NONE', *, *, #5, .F. ) ;
#30 = ORIENTED_EDGE ( 'NONE', *, *, #95, .F. ) ;
#31 = EDGE_LOOP ( 'NONE', ( #23, #26, #27, #22 ) ) ;
#32 =( LENGTH_UNIT ( ) NAMED_UNIT ( * ) SI_UNIT ( .MILLI., .METRE. ) );
#33 = PRESENTATION_LAYER_ASSIGNMENT (  '', '', ( #34 ) ) ;
#34 = STYLED_ITEM ( 'NONE', ( #230 ), #241 ) ;
#35 = AXIS2_PLACEMENT_3D ( 'NONE', #75, #88, #87 ) ;
#36 = VERTEX_POINT ( 'NONE', #180 ) ;
#37 = EDGE_CURVE ( 'NONE', #81, #83, #177, .T. ) ;
#38 = ORIENTED_EDGE ( 'NONE', *, *, #39, .T. ) ;
#39 = EDGE_CURVE ( 'NONE', #36, #10, #193, .T. ) ;
#40 = MECHANICAL_DESIGN_GEOMETRIC_PRESENTATION_REPRESENTATION (  '', ( #86 ), #65 ) ;
#41 = VERTEX_POINT ( 'NONE', #197 ) ;
#42 = ORIENTED_EDGE ( 'NONE', *, *, #78, .F. ) ;
#43 = MECHANICAL_DESIGN_GEOMETRIC_PRESENTATION_REPRESENTATION (  '', ( #45 ), #104 ) ;
#44 = PRESENTATION_LAYER_ASSIGNMENT (  '', '', ( #45 ) ) ;
#45 = STYLED_ITEM ( 'NONE', ( #46 ), #13 ) ;
#46 = PRESENTATION_STYLE_ASSIGNMENT (( #47 ) ) ;
#47 = SURFACE_STYLE_USAGE ( .BOTH. , #89 ) ;
#48 = PRESENTATION_STYLE_ASSIGNMENT (( #49 ) ) ;
#49 = SURFACE_STYLE_USAGE ( .BOTH. , #53 ) ;
#50 = EDGE_LOOP ( 'NONE', ( #19, #94, #42, #14, #11 ) ) ;
#51 = CIRCLE ( 'NONE', #35, 4.500000000000000900 ) ;
#52 = DIRECTION ( 'NONE',  ( 1.000000000000000000, 0.0000000000000000000, 0.0000000000000000000 ) ) ;
#53 = SURFACE_SIDE_STYLE ('',( #54 ) ) ;
#54 = SURFACE_STYLE_FILL_AREA ( #55 ) ;
#55 = FILL_AREA_STYLE ('',( #70 ) ) ;
#56 = MECHANICAL_DESIGN_GEOMETRIC_PRESENTATION_REPRESENTATION (  '', ( #34 ), #255 ) ;
#57 = ADVANCED_FACE ( 'NONE', ( #190 ), #168, .T. ) ;
#58 = DIRECTION ( 'NONE',  ( -0.0000000000000000000, -0.0000000000000000000, 1.000000000000000000 ) ) ;
#59 = VECTOR ( 'NONE', #58, 1000.000000000000000 ) ;
#60 = CARTESIAN_POINT ( 'NONE',  ( 4.500000000000000900, 0.0000000000000000000, 8.642581338675716700 ) ) ;
#61 = LINE ( 'NONE', #60, #59 ) ;
#62 = FILL_AREA_STYLE_COLOUR ( '', #92 ) ;
#63 =( NAMED_UNIT ( * ) PLANE_ANGLE_UNIT ( ) SI_UNIT ( $, .RADIAN. ) );
#64 = ORIENTED_EDGE ( 'NONE', *, *, #15, .T. ) ;
#65 =( GEOMETRIC_REPRESENTATION_CONTEXT ( 3 ) GLOBAL_UNCERTAINTY_ASSIGNED_CONTEXT ( ( #79 ) ) GLOBAL_UNIT_ASSIGNED_CONTEXT ( ( #72, #63, #74 ) ) REPRESENTATION_CONTEXT ( 'NONE', 'WORKASPACE' ) );
#66 = DIRECTION ( 'NONE',  ( -0.0000000000000000000, -0.0000000000000000000, 1.000000000000000000 ) ) ;
#67 = CARTESIAN_POINT ( 'NONE',  ( 0.0000000000000000000, 0.0000000000000000000, 8.642581338675716700 ) ) ;
#68 = AXIS2_PLACEMENT_3D ( 'NONE', #67, #66, #52 ) ;
#69 = CYLINDRICAL_SURFACE ( 'NONE', #68, 4.500000000000000900 ) ;
#70 = FILL_AREA_STYLE_COLOUR ( '', #80 ) ;
#71 = FACE_OUTER_BOUND ( 'NONE', #8, .T. ) ;
#72 =( LENGTH_UNIT ( ) NAMED_UNIT ( * ) SI_UNIT ( .MILLI., .METRE. ) );
#73 = MANIFOLD_SOLID_BREP ( 'NONE', #4 ) ;
#74 =( NAMED_UNIT ( * ) SI_UNIT ( $, .STERADIAN. ) SOLID_ANGLE_UNIT ( ) );
#75 = CARTESIAN_POINT ( 'NONE',  ( 0.0000000000000000000, 0.0000000000000000000, -1.374571931753610300 ) ) ;
#76 = CARTESIAN_POINT ( 'NONE',  ( 4.500000000000000900, 0.0000000000000000000, 1.374571931753610300 ) ) ;
#77 = EDGE_CURVE ( 'NONE', #81, #36, #215, .T. ) ;
#78 = EDGE_CURVE ( 'NONE', #83, #41, #198, .T. ) ;
#79 = UNCERTAINTY_MEASURE_WITH_UNIT (LENGTH_MEASURE( 1.000000000000000100E-005 ), #72, 'distance_accuracy_value', 'NONE');
#80 = COLOUR_RGB ( '',0.9568627450980391500, 0.9490196078431372100, 0.9607843137254902200 ) ;
#81 = VERTEX_POINT ( 'NONE', #229 ) ;
#82 = ORIENTED_EDGE ( 'NONE', *, *, #77, .T. ) ;
#83 = VERTEX_POINT ( 'NONE', #225 ) ;
#84 = ORIENTED_EDGE ( 'NONE', *, *, #37, .F. ) ;
#85 = PRESENTATION_LAYER_ASSIGNMENT (  '', '', ( #86 ) ) ;
#86 = STYLED_ITEM ( 'NONE', ( #48 ), #2 ) ;
#87 = DIRECTION ( 'NONE',  ( 1.000000000000000000, 0.0000000000000000000, 0.0000000000000000000 ) ) ;
#88 = DIRECTION ( 'NONE',  ( -0.0000000000000000000, -0.0000000000000000000, 1.000000000000000000 ) ) ;
#89 = SURFACE_SIDE_STYLE ('',( #90 ) ) ;
#90 = SURFACE_STYLE_FILL_AREA ( #91 ) ;
#91 = FILL_AREA_STYLE ('',( #62 ) ) ;
#92 = COLOUR_RGB ( '',0.9568627450980391500, 0.9490196078431372100, 0.9607843137254902200 ) ;
#93 = FACE_OUTER_BOUND ( 'NONE', #9, .T. ) ;
#94 = ORIENTED_EDGE ( 'NONE', *, *, #95, .T. ) ;
#95 = EDGE_CURVE ( 'NONE', #16, #41, #224, .T. ) ;
#96 = MECHANICAL_DESIGN_GEOMETRIC_PRESENTATION_REPRESENTATION (  '', ( #119 ), #162 ) ;
#97 = DIRECTION ( 'NONE',  ( 0.0000000000000000000, 1.000000000000000000, 0.0000000000000000000 ) ) ;
#98 = DIRECTION ( 'NONE',  ( -1.000000000000000000, 0.0000000000000000000, 0.0000000000000000000 ) ) ;
#99 = UNCERTAINTY_MEASURE_WITH_UNIT (LENGTH_MEASURE( 1.000000000000000100E-005 ), #103, 'distance_accuracy_value', 'NONE');
#100 =( NAMED_UNIT ( * ) SI_UNIT ( $, .STERADIAN. ) SOLID_ANGLE_UNIT ( ) );
#101 = SPHERICAL_SURFACE ( 'NONE', #106, 13.88999999999999900 ) ;
#102 =( NAMED_UNIT ( * ) PLANE_ANGLE_UNIT ( ) SI_UNIT ( $, .RADIAN. ) );
#103 =( LENGTH_UNIT ( ) NAMED_UNIT ( * ) SI_UNIT ( .MILLI., .METRE. ) );
#104 =( GEOMETRIC_REPRESENTATION_CONTEXT ( 3 ) GLOBAL_UNCERTAINTY_ASSIGNED_CONTEXT ( ( #99 ) ) GLOBAL_UNIT_ASSIGNED_CONTEXT ( ( #103, #102, #100 ) ) REPRESENTATION_CONTEXT ( 'NONE', 'WORKASPACE' ) );
#105 = CARTESIAN_POINT ( 'NONE',  ( 0.0000000000000000000, 0.0000000000000000000, 14.51542806824639200 ) ) ;
#106 = AXIS2_PLACEMENT_3D ( 'NONE', #105, #98, #97 ) ;
#107 = CIRCLE ( 'NONE', #148, 4.500000000000000900 ) ;
#108 = CARTESIAN_POINT ( 'NONE',  ( 0.0000000000000000000, 0.0000000000000000000, 1.374571931753610300 ) ) ;
#109 = SURFACE_STYLE_FILL_AREA ( #110 ) ;
#110 = FILL_AREA_STYLE ('',( #111 ) ) ;
#111 = FILL_AREA_STYLE_COLOUR ( '', #143 ) ;
#112 = DIRECTION ( 'NONE',  ( 0.0000000000000000000, 1.000000000000000000, 0.0000000000000000000 ) ) ;
#113 = DIRECTION ( 'NONE',  ( -1.000000000000000000, 0.0000000000000000000, 0.0000000000000000000 ) ) ;
#114 = STYLED_ITEM ( 'NONE', ( #115 ), #20 ) ;
#115 = PRESENTATION_STYLE_ASSIGNMENT (( #116 ) ) ;
#116 = SURFACE_STYLE_USAGE ( .BOTH. , #131 ) ;
#117 = DIRECTION ( 'NONE',  ( 1.000000000000000000, 0.0000000000000000000, 0.0000000000000000000 ) ) ;
#118 = PRESENTATION_LAYER_ASSIGNMENT (  '', '', ( #119 ) ) ;
#119 = STYLED_ITEM ( 'NONE', ( #120 ), #21 ) ;
#120 = PRESENTATION_STYLE_ASSIGNMENT (( #121 ) ) ;
#121 = SURFACE_STYLE_USAGE ( .BOTH. , #122 ) ;
#122 = SURFACE_SIDE_STYLE ('',( #109 ) ) ;
#123 = FILL_AREA_STYLE_COLOUR ( '', #124 ) ;
#124 = COLOUR_RGB ( '',0.9568627450980391500, 0.9490196078431372100, 0.9607843137254902200 ) ;
#125 = CARTESIAN_POINT ( 'NONE',  ( 0.0000000000000000000, 0.0000000000000000000, -1.374571931753610300 ) ) ;
#126 = FACE_OUTER_BOUND ( 'NONE', #31, .T. ) ;
#127 = DIRECTION ( 'NONE',  ( -0.0000000000000000000, -0.0000000000000000000, 1.000000000000000000 ) ) ;
#128 = SPHERICAL_SURFACE ( 'NONE', #146, 13.88999999999999900 ) ;
#129 =( GEOMETRIC_REPRESENTATION_CONTEXT ( 3 ) GLOBAL_UNCERTAINTY_ASSIGNED_CONTEXT ( ( #147 ) ) GLOBAL_UNIT_ASSIGNED_CONTEXT ( ( #130, #149, #142 ) ) REPRESENTATION_CONTEXT ( 'NONE', 'WORKASPACE' ) );
#130 =( LENGTH_UNIT ( ) NAMED_UNIT ( * ) SI_UNIT ( .MILLI., .METRE. ) );
#131 = SURFACE_SIDE_STYLE ('',( #132 ) ) ;
#132 = SURFACE_STYLE_FILL_AREA ( #133 ) ;
#133 = FILL_AREA_STYLE ('',( #123 ) ) ;
#134 = DIRECTION ( 'NONE',  ( -0.0000000000000000000, -0.0000000000000000000, 1.000000000000000000 ) ) ;
#135 = AXIS2_PLACEMENT_3D ( 'NONE', #125, #127, #117 ) ;
#136 = CIRCLE ( 'NONE', #135, 4.500000000000000900 ) ;
#137 = MECHANICAL_DESIGN_GEOMETRIC_PRESENTATION_REPRESENTATION (  '', ( #114 ), #129 ) ;
#138 = PRESENTATION_LAYER_ASSIGNMENT (  '', '', ( #114 ) ) ;
#139 = DIRECTION ( 'NONE',  ( 1.000000000000000000, 0.0000000000000000000, 0.0000000000000000000 ) ) ;
#140 = CARTESIAN_POINT ( 'NONE',  ( 4.500000000000000900, 0.0000000000000000000, -1.374571931753610300 ) ) ;
#141 = CARTESIAN_POINT ( 'NONE',  ( -4.500000000000000900, 5.510728592200698600E-016, -1.374571931753610300 ) ) ;
#142 =( NAMED_UNIT ( * ) SI_UNIT ( $, .STERADIAN. ) SOLID_ANGLE_UNIT ( ) );
#143 = COLOUR_RGB ( '',0.9568627450980391500, 0.9490196078431372100, 0.9607843137254902200 ) ;
#144 = FACE_OUTER_BOUND ( 'NONE', #28, .T. ) ;
#145 = CARTESIAN_POINT ( 'NONE',  ( 0.0000000000000000000, 0.0000000000000000000, 14.51542806824639200 ) ) ;
#146 = AXIS2_PLACEMENT_3D ( 'NONE', #145, #113, #112 ) ;
#147 = UNCERTAINTY_MEASURE_WITH_UNIT (LENGTH_MEASURE( 1.000000000000000100E-005 ), #130, 'distance_accuracy_value', 'NONE');
#148 = AXIS2_PLACEMENT_3D ( 'NONE', #108, #134, #139 ) ;
#149 =( NAMED_UNIT ( * ) PLANE_ANGLE_UNIT ( ) SI_UNIT ( $, .RADIAN. ) );
#150 =( NAMED_UNIT ( * ) PLANE_ANGLE_UNIT ( ) SI_UNIT ( $, .RADIAN. ) );
#151 = SURFACE_SIDE_STYLE ('',( #152 ) ) ;
#152 = SURFACE_STYLE_FILL_AREA ( #153 ) ;
#153 = FILL_AREA_STYLE ('',( #154 ) ) ;
#154 = FILL_AREA_STYLE_COLOUR ( '', #189 ) ;
#155 = DIRECTION ( 'NONE',  ( 1.000000000000000000, 0.0000000000000000000, 0.0000000000000000000 ) ) ;
#156 = DIRECTION ( 'NONE',  ( -0.0000000000000000000, -0.0000000000000000000, 1.000000000000000000 ) ) ;
#157 = STYLED_ITEM ( 'NONE', ( #158 ), #57 ) ;
#158 = PRESENTATION_STYLE_ASSIGNMENT (( #159 ) ) ;
#159 = SURFACE_STYLE_USAGE ( .BOTH. , #151 ) ;
#160 = DIRECTION ( 'NONE',  ( 0.0000000000000000000, -0.0000000000000000000, 1.000000000000000000 ) ) ;
#161 = CARTESIAN_POINT ( 'NONE',  ( 0.0000000000000000000, 3.673940397442059900E-016, -1.374571931753609400 ) ) ;
#162 =( GEOMETRIC_REPRESENTATION_CONTEXT ( 3 ) GLOBAL_UNCERTAINTY_ASSIGNED_CONTEXT ( ( #164 ) ) GLOBAL_UNIT_ASSIGNED_CONTEXT ( ( #191, #150, #174 ) ) REPRESENTATION_CONTEXT ( 'NONE', 'WORKASPACE' ) );
#163 = CARTESIAN_POINT ( 'NONE',  ( 0.0000000000000000000, 0.0000000000000000000, 14.51542806824639200 ) ) ;
#164 = UNCERTAINTY_MEASURE_WITH_UNIT (LENGTH_MEASURE( 1.000000000000000100E-005 ), #191, 'distance_accuracy_value', 'NONE');
#165 = DIRECTION ( 'NONE',  ( 0.0000000000000000000, 0.0000000000000000000, -1.000000000000000000 ) ) ;
#166 = DIRECTION ( 'NONE',  ( 1.000000000000000000, 0.0000000000000000000, 0.0000000000000000000 ) ) ;
#167 = AXIS2_PLACEMENT_3D ( 'NONE', #163, #166, #165 ) ;
#168 = CYLINDRICAL_SURFACE ( 'NONE', #176, 4.500000000000000900 ) ;
#169 =( GEOMETRIC_REPRESENTATION_CONTEXT ( 3 ) GLOBAL_UNCERTAINTY_ASSIGNED_CONTEXT ( ( #181 ) ) GLOBAL_UNIT_ASSIGNED_CONTEXT ( ( #192, #170, #182 ) ) REPRESENTATION_CONTEXT ( 'NONE', 'WORKASPACE' ) );
#170 =( NAMED_UNIT ( * ) PLANE_ANGLE_UNIT ( ) SI_UNIT ( $, .RADIAN. ) );
#171 = DIRECTION ( 'NONE',  ( 1.000000000000000000, 0.0000000000000000000, 0.0000000000000000000 ) ) ;
#172 = AXIS2_PLACEMENT_3D ( 'NONE', #161, #160, #171 ) ;
#173 = PLANE ( 'NONE',  #172 ) ;
#174 =( NAMED_UNIT ( * ) SI_UNIT ( $, .STERADIAN. ) SOLID_ANGLE_UNIT ( ) );
#175 = CARTESIAN_POINT ( 'NONE',  ( 0.0000000000000000000, 0.0000000000000000000, 8.642581338675716700 ) ) ;
#176 = AXIS2_PLACEMENT_3D ( 'NONE', #175, #156, #155 ) ;
#177 = CIRCLE ( 'NONE', #167, 13.88999999999999900 ) ;
#178 = CARTESIAN_POINT ( 'NONE',  ( 0.0000000000000000000, 0.0000000000000000000, 1.374571931753610300 ) ) ;
#179 = CARTESIAN_POINT ( 'NONE',  ( 0.0000000000000000000, 0.0000000000000000000, 1.374571931753610300 ) ) ;
#180 = CARTESIAN_POINT ( 'NONE',  ( -5.510728592200697700E-016, -4.500000000000000900, 1.374571931753611800 ) ) ;
#181 = UNCERTAINTY_MEASURE_WITH_UNIT (LENGTH_MEASURE( 1.000000000000000100E-005 ), #192, 'distance_accuracy_value', 'NONE');
#182 =( NAMED_UNIT ( * ) SI_UNIT ( $, .STERADIAN. ) SOLID_ANGLE_UNIT ( ) );
#183 = DIRECTION ( 'NONE',  ( 1.000000000000000000, 0.0000000000000000000, 0.0000000000000000000 ) ) ;
#184 = DIRECTION ( 'NONE',  ( -0.0000000000000000000, -0.0000000000000000000, 1.000000000000000000 ) ) ;
#185 = MECHANICAL_DESIGN_GEOMETRIC_PRESENTATION_REPRESENTATION (  '', ( #157 ), #169 ) ;
#186 = PRESENTATION_LAYER_ASSIGNMENT (  '', '', ( #157 ) ) ;
#187 = AXIS2_PLACEMENT_3D ( 'NONE', #179, #184, #183 ) ;
#188 = CIRCLE ( 'NONE', #187, 4.500000000000000900 ) ;
#189 = COLOUR_RGB ( '',0.9568627450980391500, 0.9490196078431372100, 0.9607843137254902200 ) ;
#190 = FACE_OUTER_BOUND ( 'NONE', #50, .T. ) ;
#191 =( LENGTH_UNIT ( ) NAMED_UNIT ( * ) SI_UNIT ( .MILLI., .METRE. ) );
#192 =( LENGTH_UNIT ( ) NAMED_UNIT ( * ) SI_UNIT ( .MILLI., .METRE. ) );
#193 = CIRCLE ( 'NONE', #196, 4.500000000000000900 ) ;
#194 = DIRECTION ( 'NONE',  ( 1.000000000000000000, 0.0000000000000000000, 0.0000000000000000000 ) ) ;
#195 = DIRECTION ( 'NONE',  ( -0.0000000000000000000, -0.0000000000000000000, 1.000000000000000000 ) ) ;
#196 = AXIS2_PLACEMENT_3D ( 'NONE', #178, #195, #194 ) ;
#197 = CARTESIAN_POINT ( 'NONE',  ( -4.500000000000000900, 5.510728592200698600E-016, 1.374571931753610300 ) ) ;
#198 = CIRCLE ( 'NONE', #203, 4.500000000000000900 ) ;
#199 =( NAMED_UNIT ( * ) PLANE_ANGLE_UNIT ( ) SI_UNIT ( $, .RADIAN. ) );
#200 = DIRECTION ( 'NONE',  ( 1.000000000000000000, 0.0000000000000000000, 0.0000000000000000000 ) ) ;
#201 = DIRECTION ( 'NONE',  ( -0.0000000000000000000, -0.0000000000000000000, 1.000000000000000000 ) ) ;
#202 = CARTESIAN_POINT ( 'NONE',  ( 0.0000000000000000000, 0.0000000000000000000, 1.374571931753610300 ) ) ;
#203 = AXIS2_PLACEMENT_3D ( 'NONE', #202, #201, #200 ) ;
#204 = MECHANICAL_DESIGN_GEOMETRIC_PRESENTATION_REPRESENTATION (  '', ( #216 ), #212 ) ;
#205 = PRESENTATION_LAYER_ASSIGNMENT (  '', '', ( #216 ) ) ;
#206 = SURFACE_STYLE_USAGE ( .BOTH. , #209 ) ;
#207 = PRESENTATION_STYLE_ASSIGNMENT (( #206 ) ) ;
#208 =( NAMED_UNIT ( * ) SI_UNIT ( $, .STERADIAN. ) SOLID_ANGLE_UNIT ( ) );
#209 = SURFACE_SIDE_STYLE ('',( #222 ) ) ;
#210 = FILL_AREA_STYLE ('',( #213 ) ) ;
#211 = UNCERTAINTY_MEASURE_WITH_UNIT (LENGTH_MEASURE( 1.000000000000000100E-005 ), #223, 'distance_accuracy_value', 'NONE');
#212 =( GEOMETRIC_REPRESENTATION_CONTEXT ( 3 ) GLOBAL_UNCERTAINTY_ASSIGNED_CONTEXT ( ( #211 ) ) GLOBAL_UNIT_ASSIGNED_CONTEXT ( ( #223, #214, #208 ) ) REPRESENTATION_CONTEXT ( 'NONE', 'WORKASPACE' ) );
#213 = FILL_AREA_STYLE_COLOUR ( '', #221 ) ;
#214 =( NAMED_UNIT ( * ) PLANE_ANGLE_UNIT ( ) SI_UNIT ( $, .RADIAN. ) );
#215 = CIRCLE ( 'NONE', #220, 13.88999999999999900 ) ;
#216 = STYLED_ITEM ( 'NONE', ( #207 ), #73 ) ;
#217 = DIRECTION ( 'NONE',  ( -1.224606353822377300E-016, -1.000000000000000000, 0.0000000000000000000 ) ) ;
#218 = DIRECTION ( 'NONE',  ( -1.000000000000000000, 1.224606353822377300E-016, 0.0000000000000000000 ) ) ;
#219 = CARTESIAN_POINT ( 'NONE',  ( 0.0000000000000000000, 0.0000000000000000000, 14.51542806824639200 ) ) ;
#220 = AXIS2_PLACEMENT_3D ( 'NONE', #219, #218, #217 ) ;
#221 = COLOUR_RGB ( '',0.7960784313725489700, 0.8235294117647058400, 0.9372549019607843100 ) ;
#222 = SURFACE_STYLE_FILL_AREA ( #210 ) ;
#223 =( LENGTH_UNIT ( ) NAMED_UNIT ( * ) SI_UNIT ( .MILLI., .METRE. ) );
#224 = LINE ( 'NONE', #237, #240 ) ;
#225 = CARTESIAN_POINT ( 'NONE',  ( 0.0000000000000000000, 4.500000000000000900, 1.374571931753611800 ) ) ;
#226 =( NAMED_UNIT ( * ) PLANE_ANGLE_UNIT ( ) SI_UNIT ( $, .RADIAN. ) );
#227 = UNCERTAINTY_MEASURE_WITH_UNIT (LENGTH_MEASURE( 1.000000000000000100E-005 ), #238, 'distance_accuracy_value', 'NONE');
#228 =( NAMED_UNIT ( * ) SI_UNIT ( $, .STERADIAN. ) SOLID_ANGLE_UNIT ( ) );
#229 = CARTESIAN_POINT ( 'NONE',  ( 0.0000000000000000000, 8.504891127296409600E-016, 0.6254280682463919700 ) ) ;
#230 = PRESENTATION_STYLE_ASSIGNMENT (( #231 ) ) ;
#231 = SURFACE_STYLE_USAGE ( .BOTH. , #232 ) ;
#232 = SURFACE_SIDE_STYLE ('',( #233 ) ) ;
#233 = SURFACE_STYLE_FILL_AREA ( #234 ) ;
#234 = FILL_AREA_STYLE ('',( #235 ) ) ;
#235 = FILL_AREA_STYLE_COLOUR ( '', #236 ) ;
#236 = COLOUR_RGB ( '',0.7960784313725489700, 0.8235294117647058400, 0.9372549019607843100 ) ;
#237 = CARTESIAN_POINT ( 'NONE',  ( -4.500000000000000900, 5.510728592200698600E-016, 8.642581338675716700 ) ) ;
#238 =( LENGTH_UNIT ( ) NAMED_UNIT ( * ) SI_UNIT ( .MILLI., .METRE. ) );
#239 = DIRECTION ( 'NONE',  ( -0.0000000000000000000, -0.0000000000000000000, 1.000000000000000000 ) ) ;
#240 = VECTOR ( 'NONE', #239, 1000.000000000000000 ) ;
#241 = ADVANCED_BREP_SHAPE_REPRESENTATION ( '4776-E0W', ( #73, #254 ), #242 ) ;
#242 =( GEOMETRIC_REPRESENTATION_CONTEXT ( 3 ) GLOBAL_UNCERTAINTY_ASSIGNED_CONTEXT ( ( #227 ) ) GLOBAL_UNIT_ASSIGNED_CONTEXT ( ( #238, #226, #228 ) ) REPRESENTATION_CONTEXT ( 'NONE', 'WORKASPACE' ) );
#243 = APPLICATION_CONTEXT ( 'automotive_design' ) ;
#244 =( NAMED_UNIT ( * ) SI_UNIT ( $, .STERADIAN. ) SOLID_ANGLE_UNIT ( ) );
#245 = APPLICATION_PROTOCOL_DEFINITION ( 'draft international standard', 'automotive_design', 1998, #243 ) ;
#246 = PRODUCT_DEFINITION_SHAPE ( 'NONE', 'NONE',  #249 ) ;
#247 = PRODUCT_RELATED_PRODUCT_CATEGORY ( 'part', '', ( #259 ) ) ;
#248 = PRODUCT_DEFINITION_FORMATION_WITH_SPECIFIED_SOURCE ( 'ANY', '', #259, .NOT_KNOWN. ) ;
#249 = PRODUCT_DEFINITION ( 'UNKNOWN', '', #248, #250 ) ;
#250 = PRODUCT_DEFINITION_CONTEXT ( 'detailed design', #258, 'design' ) ;
#251 = UNCERTAINTY_MEASURE_WITH_UNIT (LENGTH_MEASURE( 1.000000000000000100E-005 ), #32, 'distance_accuracy_value', 'NONE');
#252 = SHAPE_DEFINITION_REPRESENTATION ( #246, #241 ) ;
#253 = DIRECTION ( 'NONE',  ( 0.0000000000000000000, 0.0000000000000000000, 1.000000000000000000 ) ) ;
#254 = AXIS2_PLACEMENT_3D ( 'NONE', #256, #253, #261 ) ;
#255 =( GEOMETRIC_REPRESENTATION_CONTEXT ( 3 ) GLOBAL_UNCERTAINTY_ASSIGNED_CONTEXT ( ( #251 ) ) GLOBAL_UNIT_ASSIGNED_CONTEXT ( ( #32, #199, #244 ) ) REPRESENTATION_CONTEXT ( 'NONE', 'WORKASPACE' ) );
#256 = CARTESIAN_POINT ( 'NONE',  ( 0.0000000000000000000, 0.0000000000000000000, 0.0000000000000000000 ) ) ;
#257 = APPLICATION_PROTOCOL_DEFINITION ( 'draft international standard', 'automotive_design', 1998, #258 ) ;
#258 = APPLICATION_CONTEXT ( 'automotive_design' ) ;
#259 = PRODUCT ( '4776-E0W', '4776-E0W', '', ( #260 ) ) ;
#260 = PRODUCT_CONTEXT ( 'NONE', #243, 'mechanical' ) ;
#261 = DIRECTION ( 'NONE',  ( 1.000000000000000000, 0.0000000000000000000, 0.0000000000000000000 ) ) ;
ENDSEC;
END-ISO-10303-21;
