ISO-10303-21;
HEADER;
FILE_DESCRIPTION (( 'STEP AP203' ),
    '1' );
FILE_NAME ('Web Model 15423_15787.step',
    '2020-11-03T22:06:41',
    ( '' ),
    ( '' ),
    'SwSTEP 2.0',
    'SolidWorks 2018',
    '' );
FILE_SCHEMA (( 'CONFIG_CONTROL_DESIGN' ));
ENDSEC;

DATA;
#1 = CC_DESIGN_SECURITY_CLASSIFICATION ( #44, ( #8 ) ) ;
#2 = LOCAL_TIME ( 17, 6, 41.00000000000000000, #68 ) ;
#3 = APPROVAL_PERSON_ORGANIZATION ( #42, #59, #79 ) ;
#4 = FACE_OUTER_BOUND ( 'NONE', #55, .T. ) ;
#5 = DIRECTION ( 'NONE',  ( 1.000000000000000000, 0.0000000000000000000, 0.0000000000000000000 ) ) ;
#6 = PERSON_AND_ORGANIZATION ( #147, #157 ) ;
#7 =( NAMED_UNIT ( * ) PLANE_ANGLE_UNIT ( ) SI_UNIT ( $, .RADIAN. ) );
#8 = PRODUCT_DEFINITION_FORMATION_WITH_SPECIFIED_SOURCE ( 'ANY', '', #102, .NOT_KNOWN. ) ;
#9 = DIRECTION ( 'NONE',  ( 1.000000000000000000, 0.0000000000000000000, 0.0000000000000000000 ) ) ;
#10 = PERSON_AND_ORGANIZATION_ROLE ( 'design_owner' ) ;
#11 = CALENDAR_DATE ( 2020, 3, 11 ) ;
#12 = PERSON_AND_ORGANIZATION ( #147, #157 ) ;
#13 = DIRECTION ( 'NONE',  ( 0.0000000000000000000, 0.0000000000000000000, 1.000000000000000000 ) ) ;
#14 = ADVANCED_FACE ( 'NONE', ( #69 ), #61, .T. ) ;
#15 = VERTEX_POINT ( 'NONE', #41 ) ;
#16 = CARTESIAN_POINT ( 'NONE',  ( 0.0000000000000000000, 0.0000000000000000000, 1.500000000000000000 ) ) ;
#17 = CC_DESIGN_PERSON_AND_ORGANIZATION_ASSIGNMENT ( #54, #167, ( #44 ) ) ;
#18 = CALENDAR_DATE ( 2020, 3, 11 ) ;
#19 = DIRECTION ( 'NONE',  ( 1.000000000000000000, 0.0000000000000000000, 0.0000000000000000000 ) ) ;
#20 = APPROVAL_ROLE ( '' ) ;
#21 = DATE_TIME_ROLE ( 'classification_date' ) ;
#22 = CC_DESIGN_DATE_AND_TIME_ASSIGNMENT ( #37, #21, ( #44 ) ) ;
#23 = CIRCLE ( 'NONE', #127, 6.349999999999999645 ) ;
#24 = ORIENTED_EDGE ( 'NONE', *, *, #103, .T. ) ;
#25 = CC_DESIGN_APPROVAL ( #59, ( #83 ) ) ;
#26 = CALENDAR_DATE ( 2020, 3, 11 ) ;
#27 = PLANE ( 'NONE',  #132 ) ;
#28 = APPROVAL_DATE_TIME ( #143, #152 ) ;
#29 = DIRECTION ( 'NONE',  ( 0.0000000000000000000, 0.0000000000000000000, 1.000000000000000000 ) ) ;
#30 = DATE_AND_TIME ( #26, #38 ) ;
#31 = PERSON_AND_ORGANIZATION_ROLE ( 'creator' ) ;
#32 = UNCERTAINTY_MEASURE_WITH_UNIT (LENGTH_MEASURE( 1.000000000000000082E-05 ), #112, 'distance_accuracy_value', 'NONE');
#33 = APPROVAL_STATUS ( 'not_yet_approved' ) ;
#34 = DIRECTION ( 'NONE',  ( 0.0000000000000000000, 0.0000000000000000000, 1.000000000000000000 ) ) ;
#35 = AXIS2_PLACEMENT_3D ( 'NONE', #125, #56, #170 ) ;
#36 = FACE_OUTER_BOUND ( 'NONE', #60, .T. ) ;
#37 = DATE_AND_TIME ( #11, #168 ) ;
#38 = LOCAL_TIME ( 17, 6, 41.00000000000000000, #46 ) ;
#39 = PERSON_AND_ORGANIZATION ( #147, #157 ) ;
#40 = ADVANCED_FACE ( 'NONE', ( #4 ), #121, .T. ) ;
#41 = CARTESIAN_POINT ( 'NONE',  ( 6.349999999999999645, 7.776507174585692163E-16, -1.500000000000000000 ) ) ;
#42 = PERSON_AND_ORGANIZATION ( #147, #157 ) ;
#43 = DIRECTION ( 'NONE',  ( 1.000000000000000000, 0.0000000000000000000, -0.0000000000000000000 ) ) ;
#44 = SECURITY_CLASSIFICATION ( '', '', #130 ) ;
#45 = APPROVAL_STATUS ( 'not_yet_approved' ) ;
#46 = COORDINATED_UNIVERSAL_TIME_OFFSET ( 5, 0, .BEHIND. ) ;
#47 = SHAPE_DEFINITION_REPRESENTATION ( #57, #109 ) ;
#48 = ORIENTED_EDGE ( 'NONE', *, *, #126, .F. ) ;
#49 = LOCAL_TIME ( 17, 6, 41.00000000000000000, #145 ) ;
#50 = CIRCLE ( 'NONE', #118, 6.349999999999999645 ) ;
#51 = DIRECTION ( 'NONE',  ( -0.0000000000000000000, -0.0000000000000000000, -1.000000000000000000 ) ) ;
#52 =( GEOMETRIC_REPRESENTATION_CONTEXT ( 3 ) GLOBAL_UNCERTAINTY_ASSIGNED_CONTEXT ( ( #32 ) ) GLOBAL_UNIT_ASSIGNED_CONTEXT ( ( #112, #7, #82 ) ) REPRESENTATION_CONTEXT ( 'NONE', 'WORKASPACE' ) );
#53 = CARTESIAN_POINT ( 'NONE',  ( 0.0000000000000000000, 0.0000000000000000000, -1.500000000000000000 ) ) ;
#54 = PERSON_AND_ORGANIZATION ( #147, #157 ) ;
#55 = EDGE_LOOP ( 'NONE', ( #92, #84, #174, #48 ) ) ;
#56 = DIRECTION ( 'NONE',  ( -0.0000000000000000000, -0.0000000000000000000, -1.000000000000000000 ) ) ;
#57 = PRODUCT_DEFINITION_SHAPE ( 'NONE', 'NONE',  #83 ) ;
#58 = CALENDAR_DATE ( 2020, 3, 11 ) ;
#59 = APPROVAL ( #33, 'UNSPECIFIED' ) ;
#60 = EDGE_LOOP ( 'NONE', ( #155, #71 ) ) ;
#61 = PLANE ( 'NONE',  #111 ) ;
#62 = LINE ( 'NONE', #140, #162 ) ;
#63 = DIRECTION ( 'NONE',  ( 0.0000000000000000000, 0.0000000000000000000, 1.000000000000000000 ) ) ;
#64 = PERSON_AND_ORGANIZATION_ROLE ( 'creator' ) ;
#65 = ADVANCED_FACE ( 'NONE', ( #36 ), #27, .F. ) ;
#66 = DATE_AND_TIME ( #90, #128 ) ;
#67 = DIRECTION ( 'NONE',  ( 0.0000000000000000000, 0.0000000000000000000, 1.000000000000000000 ) ) ;
#68 = COORDINATED_UNIVERSAL_TIME_OFFSET ( 5, 0, .BEHIND. ) ;
#69 = FACE_OUTER_BOUND ( 'NONE', #97, .T. ) ;
#70 = AXIS2_PLACEMENT_3D ( 'NONE', #158, #67, #9 ) ;
#71 = ORIENTED_EDGE ( 'NONE', *, *, #117, .F. ) ;
#72 = CC_DESIGN_APPROVAL ( #148, ( #8 ) ) ;
#73 = DIRECTION ( 'NONE',  ( -0.0000000000000000000, -0.0000000000000000000, -1.000000000000000000 ) ) ;
#74 = DIRECTION ( 'NONE',  ( -0.0000000000000000000, -0.0000000000000000000, -1.000000000000000000 ) ) ;
#75 = VECTOR ( 'NONE', #73, 1000.000000000000000 ) ;
#76 = CC_DESIGN_APPROVAL ( #152, ( #44 ) ) ;
#77 = DESIGN_CONTEXT ( 'detailed design', #131, 'design' ) ;
#78 = PERSON_AND_ORGANIZATION_ROLE ( 'design_supplier' ) ;
#79 = APPROVAL_ROLE ( '' ) ;
#80 = FACE_OUTER_BOUND ( 'NONE', #175, .T. ) ;
#81 = APPLICATION_PROTOCOL_DEFINITION ( 'international standard', 'config_control_design', 1994, #131 ) ;
#82 =( NAMED_UNIT ( * ) SI_UNIT ( $, .STERADIAN. ) SOLID_ANGLE_UNIT ( ) );
#83 = PRODUCT_DEFINITION ( 'UNKNOWN', '', #8, #77 ) ;
#84 = ORIENTED_EDGE ( 'NONE', *, *, #93, .T. ) ;
#85 = APPROVAL_DATE_TIME ( #108, #148 ) ;
#86 = PRODUCT_RELATED_PRODUCT_CATEGORY ( 'detail', '', ( #102 ) ) ;
#87 = CARTESIAN_POINT ( 'NONE',  ( 0.0000000000000000000, 0.0000000000000000000, 1.500000000000000000 ) ) ;
#88 = CARTESIAN_POINT ( 'NONE',  ( -6.349999999999999645, 0.0000000000000000000, 1.500000000000000000 ) ) ;
#89 = AXIS2_PLACEMENT_3D ( 'NONE', #156, #34, #19 ) ;
#90 = CALENDAR_DATE ( 2020, 3, 11 ) ;
#91 = CARTESIAN_POINT ( 'NONE',  ( -6.349999999999999645, 0.0000000000000000000, 1.500000000000000000 ) ) ;
#92 = ORIENTED_EDGE ( 'NONE', *, *, #149, .F. ) ;
#93 = EDGE_CURVE ( 'NONE', #124, #15, #62, .T. ) ;
#94 = DIRECTION ( 'NONE',  ( 0.0000000000000000000, 0.0000000000000000000, 1.000000000000000000 ) ) ;
#95 = MECHANICAL_CONTEXT ( 'NONE', #99, 'mechanical' ) ;
#96 = APPROVAL_DATE_TIME ( #30, #59 ) ;
#97 = EDGE_LOOP ( 'NONE', ( #122, #114 ) ) ;
#98 = DATE_TIME_ROLE ( 'creation_date' ) ;
#99 = APPLICATION_CONTEXT ( 'configuration controlled 3d designs of mechanical parts and assemblies' ) ;
#100 = APPROVAL_STATUS ( 'not_yet_approved' ) ;
#101 = VERTEX_POINT ( 'NONE', #153 ) ;
#102 = PRODUCT ( 'Web Model 15423_15787', 'Web Model 15423_15787', '', ( #95 ) ) ;
#103 = EDGE_CURVE ( 'NONE', #101, #15, #159, .T. ) ;
#104 = PERSON_AND_ORGANIZATION ( #147, #157 ) ;
#105 = ORIENTED_EDGE ( 'NONE', *, *, #107, .F. ) ;
#106 = CC_DESIGN_PERSON_AND_ORGANIZATION_ASSIGNMENT ( #172, #31, ( #8 ) ) ;
#107 = EDGE_CURVE ( 'NONE', #163, #124, #50, .T. ) ;
#108 = DATE_AND_TIME ( #18, #49 ) ;
#109 = ADVANCED_BREP_SHAPE_REPRESENTATION ( 'Web Model 15423_15787', ( #120, #70 ), #52 ) ;
#110 = AXIS2_PLACEMENT_3D ( 'NONE', #53, #94, #5 ) ;
#111 = AXIS2_PLACEMENT_3D ( 'NONE', #16, #63, #43 ) ;
#112 =( LENGTH_UNIT ( ) NAMED_UNIT ( * ) SI_UNIT ( .MILLI., .METRE. ) );
#113 = PERSON_AND_ORGANIZATION ( #147, #157 ) ;
#114 = ORIENTED_EDGE ( 'NONE', *, *, #149, .T. ) ;
#115 = APPLICATION_PROTOCOL_DEFINITION ( 'international standard', 'config_control_design', 1994, #99 ) ;
#116 = CC_DESIGN_PERSON_AND_ORGANIZATION_ASSIGNMENT ( #12, #78, ( #8 ) ) ;
#117 = EDGE_CURVE ( 'NONE', #15, #101, #23, .T. ) ;
#118 = AXIS2_PLACEMENT_3D ( 'NONE', #87, #13, #123 ) ;
#119 = CYLINDRICAL_SURFACE ( 'NONE', #35, 6.349999999999999645 ) ;
#120 = MANIFOLD_SOLID_BREP ( 'Boss-Extrude1', #139 ) ;
#121 = CYLINDRICAL_SURFACE ( 'NONE', #169, 6.349999999999999645 ) ;
#122 = ORIENTED_EDGE ( 'NONE', *, *, #107, .T. ) ;
#123 = DIRECTION ( 'NONE',  ( 1.000000000000000000, 0.0000000000000000000, 0.0000000000000000000 ) ) ;
#124 = VERTEX_POINT ( 'NONE', #164 ) ;
#125 = CARTESIAN_POINT ( 'NONE',  ( 0.0000000000000000000, 0.0000000000000000000, 1.500000000000000000 ) ) ;
#126 = EDGE_CURVE ( 'NONE', #163, #101, #129, .T. ) ;
#127 = AXIS2_PLACEMENT_3D ( 'NONE', #142, #29, #151 ) ;
#128 = LOCAL_TIME ( 17, 6, 41.00000000000000000, #150 ) ;
#129 = LINE ( 'NONE', #91, #75 ) ;
#130 = SECURITY_CLASSIFICATION_LEVEL ( 'unclassified' ) ;
#131 = APPLICATION_CONTEXT ( 'configuration controlled 3d designs of mechanical parts and assemblies' ) ;
#132 = AXIS2_PLACEMENT_3D ( 'NONE', #165, #138, #161 ) ;
#133 = APPROVAL_PERSON_ORGANIZATION ( #113, #152, #166 ) ;
#134 = ORIENTED_EDGE ( 'NONE', *, *, #93, .F. ) ;
#135 = COORDINATED_UNIVERSAL_TIME_OFFSET ( 5, 0, .BEHIND. ) ;
#136 = CC_DESIGN_PERSON_AND_ORGANIZATION_ASSIGNMENT ( #104, #10, ( #102 ) ) ;
#137 = DIRECTION ( 'NONE',  ( -1.000000000000000000, 0.0000000000000000000, 0.0000000000000000000 ) ) ;
#138 = DIRECTION ( 'NONE',  ( 0.0000000000000000000, 0.0000000000000000000, 1.000000000000000000 ) ) ;
#139 = CLOSED_SHELL ( 'NONE', ( #40, #171, #14, #65 ) ) ;
#140 = CARTESIAN_POINT ( 'NONE',  ( 6.349999999999999645, 7.776507174585692163E-16, 1.500000000000000000 ) ) ;
#141 = CC_DESIGN_PERSON_AND_ORGANIZATION_ASSIGNMENT ( #39, #64, ( #83 ) ) ;
#142 = CARTESIAN_POINT ( 'NONE',  ( 0.0000000000000000000, 0.0000000000000000000, -1.500000000000000000 ) ) ;
#143 = DATE_AND_TIME ( #58, #2 ) ;
#144 = CIRCLE ( 'NONE', #89, 6.349999999999999645 ) ;
#145 = COORDINATED_UNIVERSAL_TIME_OFFSET ( 5, 0, .BEHIND. ) ;
#146 = APPROVAL_PERSON_ORGANIZATION ( #6, #148, #20 ) ;
#147 = PERSON ( 'UNSPECIFIED', 'UNSPECIFIED', 'UNSPECIFIED', ('UNSPECIFIED'), ('UNSPECIFIED'), ('UNSPECIFIED') ) ;
#148 = APPROVAL ( #100, 'UNSPECIFIED' ) ;
#149 = EDGE_CURVE ( 'NONE', #124, #163, #144, .T. ) ;
#150 = COORDINATED_UNIVERSAL_TIME_OFFSET ( 5, 0, .BEHIND. ) ;
#151 = DIRECTION ( 'NONE',  ( 1.000000000000000000, 0.0000000000000000000, 0.0000000000000000000 ) ) ;
#152 = APPROVAL ( #45, 'UNSPECIFIED' ) ;
#153 = CARTESIAN_POINT ( 'NONE',  ( -6.349999999999999645, 0.0000000000000000000, -1.500000000000000000 ) ) ;
#154 = CARTESIAN_POINT ( 'NONE',  ( 0.0000000000000000000, 0.0000000000000000000, 1.500000000000000000 ) ) ;
#155 = ORIENTED_EDGE ( 'NONE', *, *, #103, .F. ) ;
#156 = CARTESIAN_POINT ( 'NONE',  ( 0.0000000000000000000, 0.0000000000000000000, 1.500000000000000000 ) ) ;
#157 = ORGANIZATION ( 'UNSPECIFIED', 'UNSPECIFIED', '' ) ;
#158 = CARTESIAN_POINT ( 'NONE',  ( 0.0000000000000000000, 0.0000000000000000000, 0.0000000000000000000 ) ) ;
#159 = CIRCLE ( 'NONE', #110, 6.349999999999999645 ) ;
#160 = ORIENTED_EDGE ( 'NONE', *, *, #126, .T. ) ;
#161 = DIRECTION ( 'NONE',  ( 1.000000000000000000, 0.0000000000000000000, -0.0000000000000000000 ) ) ;
#162 = VECTOR ( 'NONE', #51, 1000.000000000000000 ) ;
#163 = VERTEX_POINT ( 'NONE', #88 ) ;
#164 = CARTESIAN_POINT ( 'NONE',  ( 6.349999999999999645, 7.776507174585692163E-16, 1.500000000000000000 ) ) ;
#165 = CARTESIAN_POINT ( 'NONE',  ( 0.0000000000000000000, 0.0000000000000000000, -1.500000000000000000 ) ) ;
#166 = APPROVAL_ROLE ( '' ) ;
#167 = PERSON_AND_ORGANIZATION_ROLE ( 'classification_officer' ) ;
#168 = LOCAL_TIME ( 17, 6, 41.00000000000000000, #135 ) ;
#169 = AXIS2_PLACEMENT_3D ( 'NONE', #154, #74, #137 ) ;
#170 = DIRECTION ( 'NONE',  ( -1.000000000000000000, 0.0000000000000000000, 0.0000000000000000000 ) ) ;
#171 = ADVANCED_FACE ( 'NONE', ( #80 ), #119, .T. ) ;
#172 = PERSON_AND_ORGANIZATION ( #147, #157 ) ;
#173 = CC_DESIGN_DATE_AND_TIME_ASSIGNMENT ( #66, #98, ( #83 ) ) ;
#174 = ORIENTED_EDGE ( 'NONE', *, *, #117, .T. ) ;
#175 = EDGE_LOOP ( 'NONE', ( #134, #105, #160, #24 ) ) ;
ENDSEC;
END-ISO-10303-21;
