ISO-10303-21;
HEADER;
FILE_DESCRIPTION (( 'STEP AP203' ),
    '1' );
FILE_NAME ('Web Model 11864_11873.step',
    '2019-01-03T21:49:46',
    ( '' ),
    ( '' ),
    'SwSTEP 2.0',
    'SolidWorks 2016',
    '' );
FILE_SCHEMA (( 'CONFIG_CONTROL_DESIGN' ));
ENDSEC;

DATA;
#1 = EDGE_CURVE ( 'NONE', #70, #131, #28, .T. ) ;
#2 = DATE_AND_TIME ( #156, #61 ) ;
#3 = AXIS2_PLACEMENT_3D ( 'NONE', #145, #8, #5 ) ;
#4 = CC_DESIGN_SECURITY_CLASSIFICATION ( #161, ( #120 ) ) ;
#5 = DIRECTION ( 'NONE',  ( 1.000000000000000000, 0.0000000000000000000, -0.0000000000000000000 ) ) ;
#6 = ORIENTED_EDGE ( 'NONE', *, *, #94, .F. ) ;
#7 = CARTESIAN_POINT ( 'NONE',  ( 38.10000000000000100, 4.665904304751416100E-015, -2.500000000000000000 ) ) ;
#8 = DIRECTION ( 'NONE',  ( 0.0000000000000000000, 0.0000000000000000000, 1.000000000000000000 ) ) ;
#9 = PERSON_AND_ORGANIZATION_ROLE ( 'design_supplier' ) ;
#10 = PRODUCT ( 'Web Model 11864_11873', 'Web Model 11864_11873', '', ( #36 ) ) ;
#11 = FACE_OUTER_BOUND ( 'NONE', #62, .T. ) ;
#12 = CC_DESIGN_DATE_AND_TIME_ASSIGNMENT ( #96, #114, ( #146 ) ) ;
#13 = DIRECTION ( 'NONE',  ( -1.000000000000000000, 0.0000000000000000000, 0.0000000000000000000 ) ) ;
#14 = AXIS2_PLACEMENT_3D ( 'NONE', #63, #139, #47 ) ;
#15 = PERSON_AND_ORGANIZATION ( #125, #66 ) ;
#16 = ORIENTED_EDGE ( 'NONE', *, *, #136, .F. ) ;
#17 = APPROVAL ( #110, 'UNSPECIFIED' ) ;
#18 = PERSON_AND_ORGANIZATION ( #125, #66 ) ;
#19 = PERSON_AND_ORGANIZATION_ROLE ( 'design_owner' ) ;
#20 = DIRECTION ( 'NONE',  ( 1.000000000000000000, 0.0000000000000000000, -0.0000000000000000000 ) ) ;
#21 = ORIENTED_EDGE ( 'NONE', *, *, #1, .F. ) ;
#22 = ADVANCED_FACE ( 'NONE', ( #45 ), #76, .T. ) ;
#23 = DIRECTION ( 'NONE',  ( 0.0000000000000000000, 0.0000000000000000000, 1.000000000000000000 ) ) ;
#24 = CALENDAR_DATE ( 2019, 3, 1 ) ;
#25 = PLANE ( 'NONE',  #44 ) ;
#26 = AXIS2_PLACEMENT_3D ( 'NONE', #172, #144, #174 ) ;
#27 = PERSON_AND_ORGANIZATION ( #125, #66 ) ;
#28 = LINE ( 'NONE', #124, #58 ) ;
#29 = CALENDAR_DATE ( 2019, 3, 1 ) ;
#30 = ORIENTED_EDGE ( 'NONE', *, *, #80, .F. ) ;
#31 = CC_DESIGN_PERSON_AND_ORGANIZATION_ASSIGNMENT ( #18, #19, ( #10 ) ) ;
#32 = LINE ( 'NONE', #50, #37 ) ;
#33 = APPROVAL_STATUS ( 'not_yet_approved' ) ;
#34 = APPLICATION_CONTEXT ( 'configuration controlled 3d designs of mechanical parts and assemblies' ) ;
#35 = EDGE_LOOP ( 'NONE', ( #30, #6, #69, #115 ) ) ;
#36 = MECHANICAL_CONTEXT ( 'NONE', #99, 'mechanical' ) ;
#37 = VECTOR ( 'NONE', #137, 1000.000000000000000 ) ;
#38 = DIRECTION ( 'NONE',  ( 1.000000000000000000, 0.0000000000000000000, 0.0000000000000000000 ) ) ;
#39 = DIRECTION ( 'NONE',  ( -1.000000000000000000, 0.0000000000000000000, 0.0000000000000000000 ) ) ;
#40 = PERSON_AND_ORGANIZATION ( #125, #66 ) ;
#41 = CC_DESIGN_APPROVAL ( #108, ( #146 ) ) ;
#42 = CIRCLE ( 'NONE', #26, 38.10000000000000100 ) ;
#43 = PERSON_AND_ORGANIZATION ( #125, #66 ) ;
#44 = AXIS2_PLACEMENT_3D ( 'NONE', #167, #87, #20 ) ;
#45 = FACE_OUTER_BOUND ( 'NONE', #35, .T. ) ;
#46 = CC_DESIGN_APPROVAL ( #17, ( #120 ) ) ;
#47 = DIRECTION ( 'NONE',  ( 1.000000000000000000, 0.0000000000000000000, 0.0000000000000000000 ) ) ;
#48 = APPROVAL_DATE_TIME ( #123, #173 ) ;
#49 =( NAMED_UNIT ( * ) SI_UNIT ( $, .STERADIAN. ) SOLID_ANGLE_UNIT ( ) );
#50 = CARTESIAN_POINT ( 'NONE',  ( 38.10000000000000100, 4.665904304751416100E-015, 2.500000000000000000 ) ) ;
#51 = PERSON_AND_ORGANIZATION_ROLE ( 'creator' ) ;
#52 = CC_DESIGN_PERSON_AND_ORGANIZATION_ASSIGNMENT ( #40, #51, ( #146 ) ) ;
#53 = DATE_TIME_ROLE ( 'classification_date' ) ;
#54 = LOCAL_TIME ( 16, 49, 46.00000000000000000, #129 ) ;
#55 = PRODUCT_RELATED_PRODUCT_CATEGORY ( 'detail', '', ( #10 ) ) ;
#56 =( GEOMETRIC_REPRESENTATION_CONTEXT ( 3 ) GLOBAL_UNCERTAINTY_ASSIGNED_CONTEXT ( ( #132 ) ) GLOBAL_UNIT_ASSIGNED_CONTEXT ( ( #102, #100, #49 ) ) REPRESENTATION_CONTEXT ( 'NONE', 'WORKASPACE' ) );
#57 = CC_DESIGN_PERSON_AND_ORGANIZATION_ASSIGNMENT ( #82, #74, ( #120 ) ) ;
#58 = VECTOR ( 'NONE', #104, 1000.000000000000000 ) ;
#59 = DESIGN_CONTEXT ( 'detailed design', #34, 'design' ) ;
#60 = SECURITY_CLASSIFICATION_LEVEL ( 'unclassified' ) ;
#61 = LOCAL_TIME ( 16, 49, 46.00000000000000000, #119 ) ;
#62 = EDGE_LOOP ( 'NONE', ( #79, #16 ) ) ;
#63 = CARTESIAN_POINT ( 'NONE',  ( 0.0000000000000000000, 0.0000000000000000000, 0.0000000000000000000 ) ) ;
#64 = CC_DESIGN_PERSON_AND_ORGANIZATION_ASSIGNMENT ( #138, #103, ( #161 ) ) ;
#65 = CARTESIAN_POINT ( 'NONE',  ( 0.0000000000000000000, 0.0000000000000000000, -2.500000000000000000 ) ) ;
#66 = ORGANIZATION ( 'UNSPECIFIED', 'UNSPECIFIED', '' ) ;
#67 = VERTEX_POINT ( 'NONE', #7 ) ;
#68 = CIRCLE ( 'NONE', #113, 38.10000000000000100 ) ;
#69 = ORIENTED_EDGE ( 'NONE', *, *, #1, .T. ) ;
#70 = VERTEX_POINT ( 'NONE', #116 ) ;
#71 = CC_DESIGN_DATE_AND_TIME_ASSIGNMENT ( #90, #53, ( #161 ) ) ;
#72 = DIRECTION ( 'NONE',  ( 0.0000000000000000000, 0.0000000000000000000, 1.000000000000000000 ) ) ;
#73 = MANIFOLD_SOLID_BREP ( 'Boss-Extrude1', #151 ) ;
#74 = PERSON_AND_ORGANIZATION_ROLE ( 'creator' ) ;
#75 = CARTESIAN_POINT ( 'NONE',  ( 38.10000000000000100, 4.665904304751416100E-015, 2.500000000000000000 ) ) ;
#76 = CYLINDRICAL_SURFACE ( 'NONE', #130, 38.10000000000000100 ) ;
#77 = LOCAL_TIME ( 16, 49, 46.00000000000000000, #81 ) ;
#78 = PERSON_AND_ORGANIZATION ( #125, #66 ) ;
#79 = ORIENTED_EDGE ( 'NONE', *, *, #83, .F. ) ;
#80 = EDGE_CURVE ( 'NONE', #97, #67, #32, .T. ) ;
#81 = COORDINATED_UNIVERSAL_TIME_OFFSET ( 5, 0, .BEHIND. ) ;
#82 = PERSON_AND_ORGANIZATION ( #125, #66 ) ;
#83 = EDGE_CURVE ( 'NONE', #131, #67, #109, .T. ) ;
#84 = EDGE_LOOP ( 'NONE', ( #107, #142, #135, #21 ) ) ;
#85 = APPROVAL_ROLE ( '' ) ;
#86 = CALENDAR_DATE ( 2019, 3, 1 ) ;
#87 = DIRECTION ( 'NONE',  ( 0.0000000000000000000, 0.0000000000000000000, 1.000000000000000000 ) ) ;
#88 = APPROVAL_STATUS ( 'not_yet_approved' ) ;
#89 = LOCAL_TIME ( 16, 49, 46.00000000000000000, #106 ) ;
#90 = DATE_AND_TIME ( #162, #134 ) ;
#91 = CARTESIAN_POINT ( 'NONE',  ( 0.0000000000000000000, 0.0000000000000000000, 2.500000000000000000 ) ) ;
#92 = CARTESIAN_POINT ( 'NONE',  ( -38.10000000000000100, 0.0000000000000000000, -2.500000000000000000 ) ) ;
#93 = APPROVAL_PERSON_ORGANIZATION ( #15, #173, #141 ) ;
#94 = EDGE_CURVE ( 'NONE', #70, #97, #42, .T. ) ;
#95 = APPROVAL_DATE_TIME ( #2, #17 ) ;
#96 = DATE_AND_TIME ( #24, #77 ) ;
#97 = VERTEX_POINT ( 'NONE', #75 ) ;
#98 = ORIENTED_EDGE ( 'NONE', *, *, #94, .T. ) ;
#99 = APPLICATION_CONTEXT ( 'configuration controlled 3d designs of mechanical parts and assemblies' ) ;
#100 =( NAMED_UNIT ( * ) PLANE_ANGLE_UNIT ( ) SI_UNIT ( $, .RADIAN. ) );
#101 = ADVANCED_FACE ( 'NONE', ( #148 ), #175, .T. ) ;
#102 =( LENGTH_UNIT ( ) NAMED_UNIT ( * ) SI_UNIT ( .MILLI., .METRE. ) );
#103 = PERSON_AND_ORGANIZATION_ROLE ( 'classification_officer' ) ;
#104 = DIRECTION ( 'NONE',  ( -0.0000000000000000000, -0.0000000000000000000, -1.000000000000000000 ) ) ;
#105 = CARTESIAN_POINT ( 'NONE',  ( 0.0000000000000000000, 0.0000000000000000000, -2.500000000000000000 ) ) ;
#106 = COORDINATED_UNIVERSAL_TIME_OFFSET ( 5, 0, .BEHIND. ) ;
#107 = ORIENTED_EDGE ( 'NONE', *, *, #143, .F. ) ;
#108 = APPROVAL ( #88, 'UNSPECIFIED' ) ;
#109 = CIRCLE ( 'NONE', #147, 38.10000000000000100 ) ;
#110 = APPROVAL_STATUS ( 'not_yet_approved' ) ;
#111 = DATE_AND_TIME ( #29, #54 ) ;
#112 = CARTESIAN_POINT ( 'NONE',  ( 0.0000000000000000000, 0.0000000000000000000, 2.500000000000000000 ) ) ;
#113 = AXIS2_PLACEMENT_3D ( 'NONE', #105, #23, #38 ) ;
#114 = DATE_TIME_ROLE ( 'creation_date' ) ;
#115 = ORIENTED_EDGE ( 'NONE', *, *, #83, .T. ) ;
#116 = CARTESIAN_POINT ( 'NONE',  ( -38.10000000000000100, 0.0000000000000000000, 2.500000000000000000 ) ) ;
#117 = FACE_OUTER_BOUND ( 'NONE', #118, .T. ) ;
#118 = EDGE_LOOP ( 'NONE', ( #98, #170 ) ) ;
#119 = COORDINATED_UNIVERSAL_TIME_OFFSET ( 5, 0, .BEHIND. ) ;
#120 = PRODUCT_DEFINITION_FORMATION_WITH_SPECIFIED_SOURCE ( 'ANY', '', #10, .NOT_KNOWN. ) ;
#121 = APPROVAL_ROLE ( '' ) ;
#122 = PRODUCT_DEFINITION_SHAPE ( 'NONE', 'NONE',  #146 ) ;
#123 = DATE_AND_TIME ( #86, #89 ) ;
#124 = CARTESIAN_POINT ( 'NONE',  ( -38.10000000000000100, 0.0000000000000000000, 2.500000000000000000 ) ) ;
#125 = PERSON ( 'UNSPECIFIED', 'UNSPECIFIED', 'UNSPECIFIED', ('UNSPECIFIED'), ('UNSPECIFIED'), ('UNSPECIFIED') ) ;
#126 = DIRECTION ( 'NONE',  ( 1.000000000000000000, 0.0000000000000000000, 0.0000000000000000000 ) ) ;
#127 = CIRCLE ( 'NONE', #171, 38.10000000000000100 ) ;
#128 = DIRECTION ( 'NONE',  ( 0.0000000000000000000, 0.0000000000000000000, 1.000000000000000000 ) ) ;
#129 = COORDINATED_UNIVERSAL_TIME_OFFSET ( 5, 0, .BEHIND. ) ;
#130 = AXIS2_PLACEMENT_3D ( 'NONE', #112, #157, #13 ) ;
#131 = VERTEX_POINT ( 'NONE', #92 ) ;
#132 = UNCERTAINTY_MEASURE_WITH_UNIT (LENGTH_MEASURE( 1.000000000000000100E-005 ), #102, 'distance_accuracy_value', 'NONE');
#133 = CC_DESIGN_PERSON_AND_ORGANIZATION_ASSIGNMENT ( #27, #9, ( #120 ) ) ;
#134 = LOCAL_TIME ( 16, 49, 46.00000000000000000, #169 ) ;
#135 = ORIENTED_EDGE ( 'NONE', *, *, #136, .T. ) ;
#136 = EDGE_CURVE ( 'NONE', #67, #131, #68, .T. ) ;
#137 = DIRECTION ( 'NONE',  ( -0.0000000000000000000, -0.0000000000000000000, -1.000000000000000000 ) ) ;
#138 = PERSON_AND_ORGANIZATION ( #125, #66 ) ;
#139 = DIRECTION ( 'NONE',  ( 0.0000000000000000000, 0.0000000000000000000, 1.000000000000000000 ) ) ;
#140 = DIRECTION ( 'NONE',  ( 1.000000000000000000, 0.0000000000000000000, 0.0000000000000000000 ) ) ;
#141 = APPROVAL_ROLE ( '' ) ;
#142 = ORIENTED_EDGE ( 'NONE', *, *, #80, .T. ) ;
#143 = EDGE_CURVE ( 'NONE', #97, #70, #127, .T. ) ;
#144 = DIRECTION ( 'NONE',  ( 0.0000000000000000000, 0.0000000000000000000, 1.000000000000000000 ) ) ;
#145 = CARTESIAN_POINT ( 'NONE',  ( 0.0000000000000000000, 0.0000000000000000000, -2.500000000000000000 ) ) ;
#146 = PRODUCT_DEFINITION ( 'UNKNOWN', '', #120, #59 ) ;
#147 = AXIS2_PLACEMENT_3D ( 'NONE', #65, #128, #126 ) ;
#148 = FACE_OUTER_BOUND ( 'NONE', #84, .T. ) ;
#149 = CC_DESIGN_APPROVAL ( #173, ( #161 ) ) ;
#150 = SHAPE_DEFINITION_REPRESENTATION ( #122, #152 ) ;
#151 = CLOSED_SHELL ( 'NONE', ( #101, #22, #168, #166 ) ) ;
#152 = ADVANCED_BREP_SHAPE_REPRESENTATION ( 'Web Model 11864_11873', ( #73, #14 ), #56 ) ;
#153 = CARTESIAN_POINT ( 'NONE',  ( 0.0000000000000000000, 0.0000000000000000000, 2.500000000000000000 ) ) ;
#154 = APPROVAL_PERSON_ORGANIZATION ( #78, #108, #121 ) ;
#155 = APPLICATION_PROTOCOL_DEFINITION ( 'international standard', 'config_control_design', 1994, #34 ) ;
#156 = CALENDAR_DATE ( 2019, 3, 1 ) ;
#157 = DIRECTION ( 'NONE',  ( -0.0000000000000000000, -0.0000000000000000000, -1.000000000000000000 ) ) ;
#158 = DIRECTION ( 'NONE',  ( -0.0000000000000000000, -0.0000000000000000000, -1.000000000000000000 ) ) ;
#159 = PLANE ( 'NONE',  #3 ) ;
#160 = APPROVAL_DATE_TIME ( #111, #108 ) ;
#161 = SECURITY_CLASSIFICATION ( '', '', #60 ) ;
#162 = CALENDAR_DATE ( 2019, 3, 1 ) ;
#163 = APPROVAL_PERSON_ORGANIZATION ( #43, #17, #85 ) ;
#164 = AXIS2_PLACEMENT_3D ( 'NONE', #91, #158, #39 ) ;
#165 = APPLICATION_PROTOCOL_DEFINITION ( 'international standard', 'config_control_design', 1994, #99 ) ;
#166 = ADVANCED_FACE ( 'NONE', ( #11 ), #159, .F. ) ;
#167 = CARTESIAN_POINT ( 'NONE',  ( 0.0000000000000000000, 0.0000000000000000000, 2.500000000000000000 ) ) ;
#168 = ADVANCED_FACE ( 'NONE', ( #117 ), #25, .T. ) ;
#169 = COORDINATED_UNIVERSAL_TIME_OFFSET ( 5, 0, .BEHIND. ) ;
#170 = ORIENTED_EDGE ( 'NONE', *, *, #143, .T. ) ;
#171 = AXIS2_PLACEMENT_3D ( 'NONE', #153, #72, #140 ) ;
#172 = CARTESIAN_POINT ( 'NONE',  ( 0.0000000000000000000, 0.0000000000000000000, 2.500000000000000000 ) ) ;
#173 = APPROVAL ( #33, 'UNSPECIFIED' ) ;
#174 = DIRECTION ( 'NONE',  ( 1.000000000000000000, 0.0000000000000000000, 0.0000000000000000000 ) ) ;
#175 = CYLINDRICAL_SURFACE ( 'NONE', #164, 38.10000000000000100 ) ;
ENDSEC;
END-ISO-10303-21;
