ISO-10303-21;
HEADER;
FILE_DESCRIPTION (( 'STEP AP203' ),
    '1' );
FILE_NAME ('Web Model 11856_17298.step',
    '2021-04-09T13:13:43',
    ( '' ),
    ( '' ),
    'SwSTEP 2.0',
    'SolidWorks 2018',
    '' );
FILE_SCHEMA (( 'CONFIG_CONTROL_DESIGN' ));
ENDSEC;

DATA;
#1 = VERTEX_POINT ( 'NONE', #129 ) ;
#2 = VERTEX_POINT ( 'NONE', #84 ) ;
#3 = DIRECTION ( 'NONE',  ( 1.000000000000000000, -0.000000000000000000, -0.000000000000000000 ) ) ;
#4 = CC_DESIGN_APPROVAL ( #70, ( #250 ) ) ;
#5 = CARTESIAN_POINT ( 'NONE',  ( 2.750000000000020872, 0.000000000000000000, 50.00000000000000000 ) ) ;
#6 = CARTESIAN_POINT ( 'NONE',  ( 3.000000000000000000, 0.000000000000000000, 50.00000000000000000 ) ) ;
#7 = CIRCLE ( 'NONE', #162, 49.75000000000000711 ) ;
#8 = CARTESIAN_POINT ( 'NONE',  ( -3.000000000000000000, 0.000000000000000000, 0.000000000000000000 ) ) ;
#9 = EDGE_LOOP ( 'NONE', ( #270, #21 ) ) ;
#10 = APPLICATION_PROTOCOL_DEFINITION ( 'international standard', 'config_control_design', 1994, #124 ) ;
#11 = LINE ( 'NONE', #6, #68 ) ;
#12 = DIRECTION ( 'NONE',  ( -1.000000000000000000, -0.000000000000000000, -0.000000000000000000 ) ) ;
#13 =( NAMED_UNIT ( * ) PLANE_ANGLE_UNIT ( ) SI_UNIT ( $, .RADIAN. ) );
#14 = APPROVAL_ROLE ( '' ) ;
#15 = CC_DESIGN_DATE_AND_TIME_ASSIGNMENT ( #52, #143, ( #254 ) ) ;
#16 = ORIENTED_EDGE ( 'NONE', *, *, #234, .F. ) ;
#17 = DIRECTION ( 'NONE',  ( 0.000000000000000000, 0.000000000000000000, -1.000000000000000000 ) ) ;
#18 = MANIFOLD_SOLID_BREP ( 'Chamfer1', #167 ) ;
#19 = PERSON_AND_ORGANIZATION ( #186, #82 ) ;
#20 = LOCAL_TIME ( 9, 13, 43.00000000000000000, #156 ) ;
#21 = ORIENTED_EDGE ( 'NONE', *, *, #240, .T. ) ;
#22 = CC_DESIGN_PERSON_AND_ORGANIZATION_ASSIGNMENT ( #145, #184, ( #250 ) ) ;
#23 = VERTEX_POINT ( 'NONE', #144 ) ;
#24 = ORIENTED_EDGE ( 'NONE', *, *, #234, .T. ) ;
#25 = EDGE_CURVE ( 'NONE', #23, #90, #219, .T. ) ;
#26 = DATE_AND_TIME ( #159, #63 ) ;
#27 = ORIENTED_EDGE ( 'NONE', *, *, #25, .T. ) ;
#28 = AXIS2_PLACEMENT_3D ( 'NONE', #225, #265, #263 ) ;
#29 = DIRECTION ( 'NONE',  ( -1.000000000000000000, 0.000000000000000000, 0.000000000000000000 ) ) ;
#30 = FACE_OUTER_BOUND ( 'NONE', #242, .T. ) ;
#31 = CARTESIAN_POINT ( 'NONE',  ( 3.000000000000000000, 0.000000000000000000, 0.000000000000000000 ) ) ;
#32 = DIRECTION ( 'NONE',  ( -1.000000000000000000, -0.000000000000000000, -0.000000000000000000 ) ) ;
#33 = CARTESIAN_POINT ( 'NONE',  ( -2.750000000000006661, 0.000000000000000000, -50.00000000000000000 ) ) ;
#34 = ORIENTED_EDGE ( 'NONE', *, *, #130, .T. ) ;
#35 = ADVANCED_FACE ( 'NONE', ( #262 ), #165, .T. ) ;
#36 = DIRECTION ( 'NONE',  ( 0.000000000000000000, 0.000000000000000000, -1.000000000000000000 ) ) ;
#37 = DIRECTION ( 'NONE',  ( -0.7071067811865574537, 0.000000000000000000, 0.7071067811865376918 ) ) ;
#38 = FACE_OUTER_BOUND ( 'NONE', #266, .T. ) ;
#39 = CC_DESIGN_PERSON_AND_ORGANIZATION_ASSIGNMENT ( #148, #202, ( #268 ) ) ;
#40 = DESIGN_CONTEXT ( 'detailed design', #182, 'design' ) ;
#41 = APPROVAL_ROLE ( '' ) ;
#42 =( GEOMETRIC_REPRESENTATION_CONTEXT ( 3 ) GLOBAL_UNCERTAINTY_ASSIGNED_CONTEXT ( ( #246 ) ) GLOBAL_UNIT_ASSIGNED_CONTEXT ( ( #141, #13, #55 ) ) REPRESENTATION_CONTEXT ( 'NONE', 'WORKASPACE' ) );
#43 = EDGE_CURVE ( 'NONE', #1, #2, #7, .T. ) ;
#44 = CONICAL_SURFACE ( 'NONE', #204, 50.00000000000000000, 0.7853981633974482790 ) ;
#45 = COORDINATED_UNIVERSAL_TIME_OFFSET ( 5, 0, .BEHIND. ) ;
#46 = FACE_OUTER_BOUND ( 'NONE', #245, .T. ) ;
#47 = ORIENTED_EDGE ( 'NONE', *, *, #65, .F. ) ;
#48 = AXIS2_PLACEMENT_3D ( 'NONE', #220, #173, #195 ) ;
#49 = CARTESIAN_POINT ( 'NONE',  ( 3.000000000000000000, 6.123233995736766085E-15, -50.00000000000000000 ) ) ;
#50 = DIRECTION ( 'NONE',  ( 0.7071067811865474617, 0.000000000000000000, -0.7071067811865474617 ) ) ;
#51 = ORIENTED_EDGE ( 'NONE', *, *, #240, .F. ) ;
#52 = DATE_AND_TIME ( #223, #180 ) ;
#53 = CARTESIAN_POINT ( 'NONE',  ( 3.000000000000000000, 6.092617825758085454E-15, -49.75000000000002842 ) ) ;
#54 = ADVANCED_FACE ( 'NONE', ( #38 ), #58, .T. ) ;
#55 =( NAMED_UNIT ( * ) SI_UNIT ( $, .STERADIAN. ) SOLID_ANGLE_UNIT ( ) );
#56 = ORIENTED_EDGE ( 'NONE', *, *, #114, .F. ) ;
#57 = AXIS2_PLACEMENT_3D ( 'NONE', #8, #176, #95 ) ;
#58 = CONICAL_SURFACE ( 'NONE', #125, 49.75000000000002842, 0.7853981633974344012 ) ;
#59 = CARTESIAN_POINT ( 'NONE',  ( 0.000000000000000000, 0.000000000000000000, 0.000000000000000000 ) ) ;
#60 = SECURITY_CLASSIFICATION_LEVEL ( 'unclassified' ) ;
#61 = ORIENTED_EDGE ( 'NONE', *, *, #170, .F. ) ;
#62 = PERSON_AND_ORGANIZATION ( #186, #82 ) ;
#63 = LOCAL_TIME ( 9, 13, 43.00000000000000000, #123 ) ;
#64 = AXIS2_PLACEMENT_3D ( 'NONE', #31, #74, #157 ) ;
#65 = EDGE_CURVE ( 'NONE', #150, #90, #11, .T. ) ;
#66 = EDGE_LOOP ( 'NONE', ( #56, #248, #119, #190 ) ) ;
#67 = EDGE_LOOP ( 'NONE', ( #24, #91 ) ) ;
#68 = VECTOR ( 'NONE', #32, 1000.000000000000000 ) ;
#69 = EDGE_LOOP ( 'NONE', ( #51, #171, #133, #110 ) ) ;
#70 = APPROVAL ( #121, 'UNSPECIFIED' ) ;
#71 = DIRECTION ( 'NONE',  ( -1.000000000000000000, -0.000000000000000000, -0.000000000000000000 ) ) ;
#72 = CARTESIAN_POINT ( 'NONE',  ( 3.000000000000000000, 0.000000000000000000, 0.000000000000000000 ) ) ;
#73 = CYLINDRICAL_SURFACE ( 'NONE', #48, 50.00000000000000000 ) ;
#74 = DIRECTION ( 'NONE',  ( 1.000000000000000000, 0.000000000000000000, 0.000000000000000000 ) ) ;
#75 = AXIS2_PLACEMENT_3D ( 'NONE', #208, #89, #191 ) ;
#76 = ADVANCED_FACE ( 'NONE', ( #275 ), #138, .F. ) ;
#77 = CARTESIAN_POINT ( 'NONE',  ( 3.000000000000000000, 0.000000000000000000, 49.75000000000002842 ) ) ;
#78 = CARTESIAN_POINT ( 'NONE',  ( -3.000000000000000000, 0.000000000000000000, 0.000000000000000000 ) ) ;
#79 = PERSON_AND_ORGANIZATION_ROLE ( 'creator' ) ;
#80 = EDGE_LOOP ( 'NONE', ( #192, #221, #86, #117 ) ) ;
#81 = PRODUCT_RELATED_PRODUCT_CATEGORY ( 'detail', '', ( #103 ) ) ;
#82 = ORGANIZATION ( 'UNSPECIFIED', 'UNSPECIFIED', '' ) ;
#83 = CARTESIAN_POINT ( 'NONE',  ( 3.000000000000000000, 0.000000000000000000, 0.000000000000000000 ) ) ;
#84 = CARTESIAN_POINT ( 'NONE',  ( -3.000000000000000000, 6.107925910747424192E-15, 49.75000000000000711 ) ) ;
#85 = VERTEX_POINT ( 'NONE', #196 ) ;
#86 = ORIENTED_EDGE ( 'NONE', *, *, #111, .T. ) ;
#87 = CC_DESIGN_APPROVAL ( #274, ( #254 ) ) ;
#88 = CIRCLE ( 'NONE', #64, 49.75000000000002842 ) ;
#89 = DIRECTION ( 'NONE',  ( 1.000000000000000000, -0.000000000000000000, -0.000000000000000000 ) ) ;
#90 = VERTEX_POINT ( 'NONE', #92 ) ;
#91 = ORIENTED_EDGE ( 'NONE', *, *, #114, .T. ) ;
#92 = CARTESIAN_POINT ( 'NONE',  ( -2.750000000000006661, 0.000000000000000000, 50.00000000000000000 ) ) ;
#93 = APPROVAL_PERSON_ORGANIZATION ( #62, #116, #41 ) ;
#94 = CARTESIAN_POINT ( 'NONE',  ( 3.000000000000000000, 0.000000000000000000, 0.000000000000000000 ) ) ;
#95 = DIRECTION ( 'NONE',  ( 0.000000000000000000, 0.000000000000000000, -1.000000000000000000 ) ) ;
#96 = DIRECTION ( 'NONE',  ( -1.000000000000000000, 0.000000000000000000, 0.000000000000000000 ) ) ;
#97 = MECHANICAL_CONTEXT ( 'NONE', #124, 'mechanical' ) ;
#98 = CARTESIAN_POINT ( 'NONE',  ( -3.000000000000000000, 0.000000000000000000, 0.000000000000000000 ) ) ;
#99 = APPROVAL_STATUS ( 'not_yet_approved' ) ;
#100 = CC_DESIGN_DATE_AND_TIME_ASSIGNMENT ( #26, #102, ( #268 ) ) ;
#101 = PERSON_AND_ORGANIZATION_ROLE ( 'design_owner' ) ;
#102 = DATE_TIME_ROLE ( 'classification_date' ) ;
#103 = PRODUCT ( 'Web Model 11856_17298', 'Web Model 11856_17298', '', ( #97 ) ) ;
#104 = EDGE_CURVE ( 'NONE', #2, #90, #194, .T. ) ;
#105 = AXIS2_PLACEMENT_3D ( 'NONE', #94, #160, #139 ) ;
#106 = APPROVAL_DATE_TIME ( #205, #70 ) ;
#107 = DATE_AND_TIME ( #272, #20 ) ;
#108 = CIRCLE ( 'NONE', #105, 49.75000000000002842 ) ;
#109 = DIRECTION ( 'NONE',  ( 0.000000000000000000, 0.000000000000000000, 1.000000000000000000 ) ) ;
#110 = ORIENTED_EDGE ( 'NONE', *, *, #111, .F. ) ;
#111 = EDGE_CURVE ( 'NONE', #1, #23, #189, .T. ) ;
#112 = CALENDAR_DATE ( 2021, 9, 4 ) ;
#113 = ORIENTED_EDGE ( 'NONE', *, *, #255, .T. ) ;
#114 = EDGE_CURVE ( 'NONE', #85, #203, #88, .T. ) ;
#115 = LINE ( 'NONE', #53, #271 ) ;
#116 = APPROVAL ( #99, 'UNSPECIFIED' ) ;
#117 = ORIENTED_EDGE ( 'NONE', *, *, #130, .F. ) ;
#118 = CARTESIAN_POINT ( 'NONE',  ( 2.750000000000020872, 0.000000000000000000, 0.000000000000000000 ) ) ;
#119 = ORIENTED_EDGE ( 'NONE', *, *, #137, .F. ) ;
#120 = DIRECTION ( 'NONE',  ( 0.000000000000000000, 0.000000000000000000, 1.000000000000000000 ) ) ;
#121 = APPROVAL_STATUS ( 'not_yet_approved' ) ;
#122 = CIRCLE ( 'NONE', #216, 49.75000000000000711 ) ;
#123 = COORDINATED_UNIVERSAL_TIME_OFFSET ( 5, 0, .BEHIND. ) ;
#124 = APPLICATION_CONTEXT ( 'configuration controlled 3d designs of mechanical parts and assemblies' ) ;
#125 = AXIS2_PLACEMENT_3D ( 'NONE', #83, #229, #109 ) ;
#126 = LOCAL_TIME ( 9, 13, 43.00000000000000000, #175 ) ;
#127 = LINE ( 'NONE', #49, #230 ) ;
#128 = DIRECTION ( 'NONE',  ( 0.000000000000000000, 0.000000000000000000, -1.000000000000000000 ) ) ;
#129 = CARTESIAN_POINT ( 'NONE',  ( -3.000000000000000000, 0.000000000000000000, -49.75000000000000711 ) ) ;
#130 = EDGE_CURVE ( 'NONE', #90, #23, #235, .T. ) ;
#131 = PERSON_AND_ORGANIZATION ( #186, #82 ) ;
#132 = LINE ( 'NONE', #178, #252 ) ;
#133 = ORIENTED_EDGE ( 'NONE', *, *, #25, .F. ) ;
#134 = FACE_OUTER_BOUND ( 'NONE', #80, .T. ) ;
#135 = CC_DESIGN_APPROVAL ( #116, ( #268 ) ) ;
#136 = DIRECTION ( 'NONE',  ( 1.000000000000000000, -0.000000000000000000, -0.000000000000000000 ) ) ;
#137 = EDGE_CURVE ( 'NONE', #150, #207, #185, .T. ) ;
#138 = PLANE ( 'NONE',  #57 ) ;
#139 = DIRECTION ( 'NONE',  ( 0.000000000000000000, 0.000000000000000000, -1.000000000000000000 ) ) ;
#140 = DIRECTION ( 'NONE',  ( -1.000000000000000000, -0.000000000000000000, -0.000000000000000000 ) ) ;
#141 =( LENGTH_UNIT ( ) NAMED_UNIT ( * ) SI_UNIT ( .MILLI., .METRE. ) );
#142 = FACE_OUTER_BOUND ( 'NONE', #66, .T. ) ;
#143 = DATE_TIME_ROLE ( 'creation_date' ) ;
#144 = CARTESIAN_POINT ( 'NONE',  ( -2.750000000000006661, 6.123233995736766085E-15, -50.00000000000000000 ) ) ;
#145 = PERSON_AND_ORGANIZATION ( #186, #82 ) ;
#146 = PRODUCT_DEFINITION_SHAPE ( 'NONE', 'NONE',  #254 ) ;
#147 = PERSON_AND_ORGANIZATION ( #186, #82 ) ;
#148 = PERSON_AND_ORGANIZATION ( #186, #82 ) ;
#149 = ORIENTED_EDGE ( 'NONE', *, *, #65, .T. ) ;
#150 = VERTEX_POINT ( 'NONE', #5 ) ;
#151 = DIRECTION ( 'NONE',  ( 1.000000000000000000, -0.000000000000000000, -0.000000000000000000 ) ) ;
#152 = CARTESIAN_POINT ( 'NONE',  ( 2.750000000000020872, 6.123233995736766085E-15, -50.00000000000000000 ) ) ;
#153 = ADVANCED_FACE ( 'NONE', ( #134 ), #44, .T. ) ;
#154 = CARTESIAN_POINT ( 'NONE',  ( -2.750000000000006661, 0.000000000000000000, 0.000000000000000000 ) ) ;
#155 = CALENDAR_DATE ( 2021, 9, 4 ) ;
#156 = COORDINATED_UNIVERSAL_TIME_OFFSET ( 5, 0, .BEHIND. ) ;
#157 = DIRECTION ( 'NONE',  ( 0.000000000000000000, 0.000000000000000000, -1.000000000000000000 ) ) ;
#158 = VECTOR ( 'NONE', #50, 1000.000000000000114 ) ;
#159 = CALENDAR_DATE ( 2021, 9, 4 ) ;
#160 = DIRECTION ( 'NONE',  ( 1.000000000000000000, 0.000000000000000000, 0.000000000000000000 ) ) ;
#161 = APPLICATION_PROTOCOL_DEFINITION ( 'international standard', 'config_control_design', 1994, #182 ) ;
#162 = AXIS2_PLACEMENT_3D ( 'NONE', #98, #71, #128 ) ;
#163 = ORIENTED_EDGE ( 'NONE', *, *, #249, .T. ) ;
#164 = CONICAL_SURFACE ( 'NONE', #264, 49.75000000000002842, 0.7853981633974344012 ) ;
#165 = PLANE ( 'NONE',  #211 ) ;
#166 = CYLINDRICAL_SURFACE ( 'NONE', #238, 50.00000000000000000 ) ;
#167 = CLOSED_SHELL ( 'NONE', ( #217, #172, #258, #214, #35, #76, #153, #54 ) ) ;
#168 = VECTOR ( 'NONE', #236, 1000.000000000000114 ) ;
#169 = SHAPE_DEFINITION_REPRESENTATION ( #146, #212 ) ;
#170 = EDGE_CURVE ( 'NONE', #85, #207, #115, .T. ) ;
#171 = ORIENTED_EDGE ( 'NONE', *, *, #104, .T. ) ;
#172 = ADVANCED_FACE ( 'NONE', ( #227 ), #213, .T. ) ;
#173 = DIRECTION ( 'NONE',  ( -1.000000000000000000, -0.000000000000000000, -0.000000000000000000 ) ) ;
#174 = AXIS2_PLACEMENT_3D ( 'NONE', #251, #3, #218 ) ;
#175 = COORDINATED_UNIVERSAL_TIME_OFFSET ( 5, 0, .BEHIND. ) ;
#176 = DIRECTION ( 'NONE',  ( 1.000000000000000000, 0.000000000000000000, 0.000000000000000000 ) ) ;
#177 = DIRECTION ( 'NONE',  ( 0.000000000000000000, 0.000000000000000000, -1.000000000000000000 ) ) ;
#178 = CARTESIAN_POINT ( 'NONE',  ( 3.000000000000000000, 0.000000000000000000, 49.75000000000002842 ) ) ;
#179 = APPROVAL_ROLE ( '' ) ;
#180 = LOCAL_TIME ( 9, 13, 43.00000000000000000, #232 ) ;
#181 = APPROVAL_DATE_TIME ( #107, #116 ) ;
#182 = APPLICATION_CONTEXT ( 'configuration controlled 3d designs of mechanical parts and assemblies' ) ;
#183 = EDGE_CURVE ( 'NONE', #207, #23, #127, .T. ) ;
#184 = PERSON_AND_ORGANIZATION_ROLE ( 'creator' ) ;
#185 = CIRCLE ( 'NONE', #247, 50.00000000000000000 ) ;
#186 = PERSON ( 'UNSPECIFIED', 'UNSPECIFIED', 'UNSPECIFIED', ('UNSPECIFIED'), ('UNSPECIFIED'), ('UNSPECIFIED') ) ;
#187 = APPROVAL_DATE_TIME ( #241, #274 ) ;
#188 = CARTESIAN_POINT ( 'NONE',  ( 3.000000000000000000, 0.000000000000000000, 0.000000000000000000 ) ) ;
#189 = LINE ( 'NONE', #33, #158 ) ;
#190 = ORIENTED_EDGE ( 'NONE', *, *, #255, .F. ) ;
#191 = DIRECTION ( 'NONE',  ( 0.000000000000000000, 0.000000000000000000, -1.000000000000000000 ) ) ;
#192 = ORIENTED_EDGE ( 'NONE', *, *, #104, .F. ) ;
#193 = AXIS2_PLACEMENT_3D ( 'NONE', #154, #151, #36 ) ;
#194 = LINE ( 'NONE', #215, #168 ) ;
#195 = DIRECTION ( 'NONE',  ( 0.000000000000000000, 0.000000000000000000, 1.000000000000000000 ) ) ;
#196 = CARTESIAN_POINT ( 'NONE',  ( 3.000000000000000000, 6.107925910747425769E-15, -49.75000000000002842 ) ) ;
#197 = ORIENTED_EDGE ( 'NONE', *, *, #249, .F. ) ;
#198 = DIRECTION ( 'NONE',  ( -0.7071067811865574537, 8.659560562354813296E-17, -0.7071067811865376918 ) ) ;
#199 = CC_DESIGN_PERSON_AND_ORGANIZATION_ASSIGNMENT ( #147, #101, ( #103 ) ) ;
#200 = PERSON_AND_ORGANIZATION_ROLE ( 'design_supplier' ) ;
#201 = DIRECTION ( 'NONE',  ( 0.000000000000000000, 0.000000000000000000, 1.000000000000000000 ) ) ;
#202 = PERSON_AND_ORGANIZATION_ROLE ( 'classification_officer' ) ;
#203 = VERTEX_POINT ( 'NONE', #77 ) ;
#204 = AXIS2_PLACEMENT_3D ( 'NONE', #256, #136, #177 ) ;
#205 = DATE_AND_TIME ( #155, #257 ) ;
#206 = CIRCLE ( 'NONE', #28, 50.00000000000000000 ) ;
#207 = VERTEX_POINT ( 'NONE', #152 ) ;
#208 = CARTESIAN_POINT ( 'NONE',  ( -2.750000000000006661, 0.000000000000000000, 0.000000000000000000 ) ) ;
#209 = PERSON_AND_ORGANIZATION ( #186, #82 ) ;
#210 = PERSON_AND_ORGANIZATION ( #186, #82 ) ;
#211 = AXIS2_PLACEMENT_3D ( 'NONE', #188, #269, #17 ) ;
#212 = ADVANCED_BREP_SHAPE_REPRESENTATION ( 'Web Model 11856_17298', ( #18, #244 ), #42 ) ;
#213 = CONICAL_SURFACE ( 'NONE', #193, 50.00000000000000000, 0.7853981633974482790 ) ;
#214 = ADVANCED_FACE ( 'NONE', ( #30 ), #73, .T. ) ;
#215 = CARTESIAN_POINT ( 'NONE',  ( -2.750000000000006661, 6.123233995736766085E-15, 50.00000000000000000 ) ) ;
#216 = AXIS2_PLACEMENT_3D ( 'NONE', #78, #140, #243 ) ;
#217 = ADVANCED_FACE ( 'NONE', ( #142 ), #164, .T. ) ;
#218 = DIRECTION ( 'NONE',  ( 0.000000000000000000, 0.000000000000000000, -1.000000000000000000 ) ) ;
#219 = CIRCLE ( 'NONE', #75, 50.00000000000000000 ) ;
#220 = CARTESIAN_POINT ( 'NONE',  ( 3.000000000000000000, 0.000000000000000000, 0.000000000000000000 ) ) ;
#221 = ORIENTED_EDGE ( 'NONE', *, *, #43, .F. ) ;
#222 = DIRECTION ( 'NONE',  ( 0.000000000000000000, 0.000000000000000000, 1.000000000000000000 ) ) ;
#223 = CALENDAR_DATE ( 2021, 9, 4 ) ;
#224 = CC_DESIGN_PERSON_AND_ORGANIZATION_ASSIGNMENT ( #19, #79, ( #254 ) ) ;
#225 = CARTESIAN_POINT ( 'NONE',  ( 2.750000000000020872, 0.000000000000000000, 0.000000000000000000 ) ) ;
#226 = ORIENTED_EDGE ( 'NONE', *, *, #183, .T. ) ;
#227 = FACE_OUTER_BOUND ( 'NONE', #69, .T. ) ;
#228 = CC_DESIGN_SECURITY_CLASSIFICATION ( #268, ( #250 ) ) ;
#229 = DIRECTION ( 'NONE',  ( -1.000000000000000000, 0.000000000000000000, 0.000000000000000000 ) ) ;
#230 = VECTOR ( 'NONE', #253, 1000.000000000000000 ) ;
#231 = APPROVAL_PERSON_ORGANIZATION ( #131, #274, #179 ) ;
#232 = COORDINATED_UNIVERSAL_TIME_OFFSET ( 5, 0, .BEHIND. ) ;
#233 = CC_DESIGN_PERSON_AND_ORGANIZATION_ASSIGNMENT ( #210, #200, ( #250 ) ) ;
#234 = EDGE_CURVE ( 'NONE', #203, #85, #108, .T. ) ;
#235 = CIRCLE ( 'NONE', #174, 50.00000000000000000 ) ;
#236 = DIRECTION ( 'NONE',  ( 0.7071067811865474617, 8.659560562354932858E-17, 0.7071067811865474617 ) ) ;
#237 = DIRECTION ( 'NONE',  ( 0.000000000000000000, 0.000000000000000000, -1.000000000000000000 ) ) ;
#238 = AXIS2_PLACEMENT_3D ( 'NONE', #259, #12, #222 ) ;
#239 = DIRECTION ( 'NONE',  ( 1.000000000000000000, 0.000000000000000000, 0.000000000000000000 ) ) ;
#240 = EDGE_CURVE ( 'NONE', #2, #1, #122, .T. ) ;
#241 = DATE_AND_TIME ( #112, #126 ) ;
#242 = EDGE_LOOP ( 'NONE', ( #273, #163, #149, #34 ) ) ;
#243 = DIRECTION ( 'NONE',  ( 0.000000000000000000, 0.000000000000000000, -1.000000000000000000 ) ) ;
#244 = AXIS2_PLACEMENT_3D ( 'NONE', #59, #201, #239 ) ;
#245 = EDGE_LOOP ( 'NONE', ( #260, #226, #27, #47 ) ) ;
#246 = UNCERTAINTY_MEASURE_WITH_UNIT (LENGTH_MEASURE( 1.000000000000000082E-05 ), #141, 'distance_accuracy_value', 'NONE');
#247 = AXIS2_PLACEMENT_3D ( 'NONE', #118, #29, #237 ) ;
#248 = ORIENTED_EDGE ( 'NONE', *, *, #170, .T. ) ;
#249 = EDGE_CURVE ( 'NONE', #207, #150, #206, .T. ) ;
#250 = PRODUCT_DEFINITION_FORMATION_WITH_SPECIFIED_SOURCE ( 'ANY', '', #103, .NOT_KNOWN. ) ;
#251 = CARTESIAN_POINT ( 'NONE',  ( -2.750000000000006661, 0.000000000000000000, 0.000000000000000000 ) ) ;
#252 = VECTOR ( 'NONE', #37, 999.9999999999998863 ) ;
#253 = DIRECTION ( 'NONE',  ( -1.000000000000000000, -0.000000000000000000, -0.000000000000000000 ) ) ;
#254 = PRODUCT_DEFINITION ( 'UNKNOWN', '', #250, #40 ) ;
#255 = EDGE_CURVE ( 'NONE', #203, #150, #132, .T. ) ;
#256 = CARTESIAN_POINT ( 'NONE',  ( -2.750000000000006661, 0.000000000000000000, 0.000000000000000000 ) ) ;
#257 = LOCAL_TIME ( 9, 13, 43.00000000000000000, #45 ) ;
#258 = ADVANCED_FACE ( 'NONE', ( #46 ), #166, .T. ) ;
#259 = CARTESIAN_POINT ( 'NONE',  ( 3.000000000000000000, 0.000000000000000000, 0.000000000000000000 ) ) ;
#260 = ORIENTED_EDGE ( 'NONE', *, *, #137, .T. ) ;
#261 = APPROVAL_STATUS ( 'not_yet_approved' ) ;
#262 = FACE_OUTER_BOUND ( 'NONE', #67, .T. ) ;
#263 = DIRECTION ( 'NONE',  ( 0.000000000000000000, 0.000000000000000000, -1.000000000000000000 ) ) ;
#264 = AXIS2_PLACEMENT_3D ( 'NONE', #72, #96, #120 ) ;
#265 = DIRECTION ( 'NONE',  ( -1.000000000000000000, 0.000000000000000000, 0.000000000000000000 ) ) ;
#266 = EDGE_LOOP ( 'NONE', ( #61, #16, #113, #197 ) ) ;
#267 = APPROVAL_PERSON_ORGANIZATION ( #209, #70, #14 ) ;
#268 = SECURITY_CLASSIFICATION ( '', '', #60 ) ;
#269 = DIRECTION ( 'NONE',  ( 1.000000000000000000, 0.000000000000000000, 0.000000000000000000 ) ) ;
#270 = ORIENTED_EDGE ( 'NONE', *, *, #43, .T. ) ;
#271 = VECTOR ( 'NONE', #198, 999.9999999999998863 ) ;
#272 = CALENDAR_DATE ( 2021, 9, 4 ) ;
#273 = ORIENTED_EDGE ( 'NONE', *, *, #183, .F. ) ;
#274 = APPROVAL ( #261, 'UNSPECIFIED' ) ;
#275 = FACE_OUTER_BOUND ( 'NONE', #9, .T. ) ;
ENDSEC;
END-ISO-10303-21;
