ISO-10303-21;
HEADER;
FILE_DESCRIPTION (( 'STEP AP203' ),
    '1' );
FILE_NAME ('Web Model 11875_14810.step',
    '2020-10-07T17:18:35',
    ( '' ),
    ( '' ),
    'SwSTEP 2.0',
    'SolidWorks 2018',
    '' );
FILE_SCHEMA (( 'CONFIG_CONTROL_DESIGN' ));
ENDSEC;

DATA;
#1 = LOCAL_TIME ( 13, 18, 35.00000000000000000, #35 ) ;
#2 = EDGE_CURVE ( 'NONE', #92, #36, #65, .T. ) ;
#3 = CC_DESIGN_PERSON_AND_ORGANIZATION_ASSIGNMENT ( #70, #53, ( #95 ) ) ;
#4 = DATE_AND_TIME ( #39, #103 ) ;
#5 = CARTESIAN_POINT ( 'NONE',  ( -25.39999999999999858, 0.0000000000000000000, 1.500000000000000000 ) ) ;
#6 = CARTESIAN_POINT ( 'NONE',  ( 0.0000000000000000000, 0.0000000000000000000, 1.500000000000000000 ) ) ;
#7 = CARTESIAN_POINT ( 'NONE',  ( 0.0000000000000000000, 0.0000000000000000000, 0.0000000000000000000 ) ) ;
#8 = PERSON_AND_ORGANIZATION_ROLE ( 'design_owner' ) ;
#9 = EDGE_CURVE ( 'NONE', #73, #138, #148, .T. ) ;
#10 = DATE_AND_TIME ( #46, #54 ) ;
#11 = APPROVAL ( #40, 'UNSPECIFIED' ) ;
#12 = PERSON_AND_ORGANIZATION_ROLE ( 'design_supplier' ) ;
#13 = MANIFOLD_SOLID_BREP ( 'Boss-Extrude1', #136 ) ;
#14 = APPROVAL_ROLE ( '' ) ;
#15 = SHAPE_DEFINITION_REPRESENTATION ( #24, #63 ) ;
#16 = FACE_OUTER_BOUND ( 'NONE', #78, .T. ) ;
#17 = DATE_AND_TIME ( #81, #108 ) ;
#18 = DIRECTION ( 'NONE',  ( 0.0000000000000000000, 0.0000000000000000000, 1.000000000000000000 ) ) ;
#19 = COORDINATED_UNIVERSAL_TIME_OFFSET ( 5, 0, .BEHIND. ) ;
#20 = PLANE ( 'NONE',  #135 ) ;
#21 =( GEOMETRIC_REPRESENTATION_CONTEXT ( 3 ) GLOBAL_UNCERTAINTY_ASSIGNED_CONTEXT ( ( #44 ) ) GLOBAL_UNIT_ASSIGNED_CONTEXT ( ( #172, #74, #90 ) ) REPRESENTATION_CONTEXT ( 'NONE', 'WORKASPACE' ) );
#22 = ORIENTED_EDGE ( 'NONE', *, *, #134, .T. ) ;
#23 = DIRECTION ( 'NONE',  ( -0.0000000000000000000, -0.0000000000000000000, -1.000000000000000000 ) ) ;
#24 = PRODUCT_DEFINITION_SHAPE ( 'NONE', 'NONE',  #162 ) ;
#25 = ORIENTED_EDGE ( 'NONE', *, *, #134, .F. ) ;
#26 = SECURITY_CLASSIFICATION_LEVEL ( 'unclassified' ) ;
#27 = AXIS2_PLACEMENT_3D ( 'NONE', #98, #18, #86 ) ;
#28 = EDGE_LOOP ( 'NONE', ( #93, #52 ) ) ;
#29 = CC_DESIGN_PERSON_AND_ORGANIZATION_ASSIGNMENT ( #113, #8, ( #146 ) ) ;
#30 = CALENDAR_DATE ( 2020, 7, 10 ) ;
#31 = ADVANCED_FACE ( 'NONE', ( #16 ), #20, .F. ) ;
#32 = CARTESIAN_POINT ( 'NONE',  ( 0.0000000000000000000, 0.0000000000000000000, 1.500000000000000000 ) ) ;
#33 = FACE_OUTER_BOUND ( 'NONE', #107, .T. ) ;
#34 = DIRECTION ( 'NONE',  ( 1.000000000000000000, 0.0000000000000000000, 0.0000000000000000000 ) ) ;
#35 = COORDINATED_UNIVERSAL_TIME_OFFSET ( 5, 0, .BEHIND. ) ;
#36 = VERTEX_POINT ( 'NONE', #129 ) ;
#37 = DIRECTION ( 'NONE',  ( 1.000000000000000000, 0.0000000000000000000, 0.0000000000000000000 ) ) ;
#38 = AXIS2_PLACEMENT_3D ( 'NONE', #159, #115, #116 ) ;
#39 = CALENDAR_DATE ( 2020, 7, 10 ) ;
#40 = APPROVAL_STATUS ( 'not_yet_approved' ) ;
#41 = APPROVAL ( #50, 'UNSPECIFIED' ) ;
#42 = DATE_AND_TIME ( #51, #124 ) ;
#43 = APPROVAL_DATE_TIME ( #10, #41 ) ;
#44 = UNCERTAINTY_MEASURE_WITH_UNIT (LENGTH_MEASURE( 1.000000000000000082E-05 ), #172, 'distance_accuracy_value', 'NONE');
#45 = DIRECTION ( 'NONE',  ( 1.000000000000000000, 0.0000000000000000000, -0.0000000000000000000 ) ) ;
#46 = CALENDAR_DATE ( 2020, 7, 10 ) ;
#47 = CC_DESIGN_DATE_AND_TIME_ASSIGNMENT ( #42, #61, ( #162 ) ) ;
#48 = MECHANICAL_CONTEXT ( 'NONE', #88, 'mechanical' ) ;
#49 = CIRCLE ( 'NONE', #94, 25.39999999999999858 ) ;
#50 = APPROVAL_STATUS ( 'not_yet_approved' ) ;
#51 = CALENDAR_DATE ( 2020, 7, 10 ) ;
#52 = ORIENTED_EDGE ( 'NONE', *, *, #123, .T. ) ;
#53 = PERSON_AND_ORGANIZATION_ROLE ( 'classification_officer' ) ;
#54 = LOCAL_TIME ( 13, 18, 35.00000000000000000, #117 ) ;
#55 = DIRECTION ( 'NONE',  ( 0.0000000000000000000, 0.0000000000000000000, 1.000000000000000000 ) ) ;
#56 = ORIENTED_EDGE ( 'NONE', *, *, #167, .T. ) ;
#57 = CYLINDRICAL_SURFACE ( 'NONE', #38, 25.39999999999999858 ) ;
#58 = APPROVAL_DATE_TIME ( #17, #11 ) ;
#59 = ORIENTED_EDGE ( 'NONE', *, *, #9, .F. ) ;
#60 = CARTESIAN_POINT ( 'NONE',  ( -25.39999999999999858, 0.0000000000000000000, 1.500000000000000000 ) ) ;
#61 = DATE_TIME_ROLE ( 'creation_date' ) ;
#62 = CARTESIAN_POINT ( 'NONE',  ( 0.0000000000000000000, 0.0000000000000000000, 1.500000000000000000 ) ) ;
#63 = ADVANCED_BREP_SHAPE_REPRESENTATION ( 'Web Model 11875_14810', ( #13, #140 ), #21 ) ;
#64 = CARTESIAN_POINT ( 'NONE',  ( 0.0000000000000000000, 0.0000000000000000000, -1.500000000000000000 ) ) ;
#65 = CIRCLE ( 'NONE', #111, 25.39999999999999858 ) ;
#66 = AXIS2_PLACEMENT_3D ( 'NONE', #32, #127, #45 ) ;
#67 = PERSON_AND_ORGANIZATION ( #130, #80 ) ;
#68 = CC_DESIGN_PERSON_AND_ORGANIZATION_ASSIGNMENT ( #91, #143, ( #162 ) ) ;
#69 = FACE_OUTER_BOUND ( 'NONE', #175, .T. ) ;
#70 = PERSON_AND_ORGANIZATION ( #130, #80 ) ;
#71 = VECTOR ( 'NONE', #169, 1000.000000000000000 ) ;
#72 = CARTESIAN_POINT ( 'NONE',  ( 25.39999999999999858, 3.110602869834276865E-15, 1.500000000000000000 ) ) ;
#73 = VERTEX_POINT ( 'NONE', #5 ) ;
#74 =( NAMED_UNIT ( * ) PLANE_ANGLE_UNIT ( ) SI_UNIT ( $, .RADIAN. ) );
#75 = AXIS2_PLACEMENT_3D ( 'NONE', #62, #104, #131 ) ;
#76 = APPROVAL_PERSON_ORGANIZATION ( #139, #114, #14 ) ;
#77 = DIRECTION ( 'NONE',  ( 0.0000000000000000000, 0.0000000000000000000, 1.000000000000000000 ) ) ;
#78 = EDGE_LOOP ( 'NONE', ( #164, #89 ) ) ;
#79 = AXIS2_PLACEMENT_3D ( 'NONE', #6, #157, #100 ) ;
#80 = ORGANIZATION ( 'UNSPECIFIED', 'UNSPECIFIED', '' ) ;
#81 = CALENDAR_DATE ( 2020, 7, 10 ) ;
#82 = CC_DESIGN_APPROVAL ( #11, ( #95 ) ) ;
#83 = VECTOR ( 'NONE', #23, 1000.000000000000000 ) ;
#84 = APPROVAL_ROLE ( '' ) ;
#85 = ADVANCED_FACE ( 'NONE', ( #166 ), #168, .T. ) ;
#86 = DIRECTION ( 'NONE',  ( 1.000000000000000000, 0.0000000000000000000, 0.0000000000000000000 ) ) ;
#87 = CC_DESIGN_PERSON_AND_ORGANIZATION_ASSIGNMENT ( #106, #12, ( #109 ) ) ;
#88 = APPLICATION_CONTEXT ( 'configuration controlled 3d designs of mechanical parts and assemblies' ) ;
#89 = ORIENTED_EDGE ( 'NONE', *, *, #161, .F. ) ;
#90 =( NAMED_UNIT ( * ) SI_UNIT ( $, .STERADIAN. ) SOLID_ANGLE_UNIT ( ) );
#91 = PERSON_AND_ORGANIZATION ( #130, #80 ) ;
#92 = VERTEX_POINT ( 'NONE', #112 ) ;
#93 = ORIENTED_EDGE ( 'NONE', *, *, #9, .T. ) ;
#94 = AXIS2_PLACEMENT_3D ( 'NONE', #64, #77, #34 ) ;
#95 = SECURITY_CLASSIFICATION ( '', '', #26 ) ;
#96 = ORIENTED_EDGE ( 'NONE', *, *, #123, .F. ) ;
#97 = APPROVAL_PERSON_ORGANIZATION ( #137, #11, #119 ) ;
#98 = CARTESIAN_POINT ( 'NONE',  ( 0.0000000000000000000, 0.0000000000000000000, 1.500000000000000000 ) ) ;
#99 = DIRECTION ( 'NONE',  ( 1.000000000000000000, 0.0000000000000000000, -0.0000000000000000000 ) ) ;
#100 = DIRECTION ( 'NONE',  ( 1.000000000000000000, 0.0000000000000000000, 0.0000000000000000000 ) ) ;
#101 = APPLICATION_PROTOCOL_DEFINITION ( 'international standard', 'config_control_design', 1994, #88 ) ;
#102 = CC_DESIGN_SECURITY_CLASSIFICATION ( #95, ( #109 ) ) ;
#103 = LOCAL_TIME ( 13, 18, 35.00000000000000000, #147 ) ;
#104 = DIRECTION ( 'NONE',  ( -0.0000000000000000000, -0.0000000000000000000, -1.000000000000000000 ) ) ;
#105 = CC_DESIGN_APPROVAL ( #41, ( #162 ) ) ;
#106 = PERSON_AND_ORGANIZATION ( #130, #80 ) ;
#107 = EDGE_LOOP ( 'NONE', ( #96, #22, #144, #163 ) ) ;
#108 = LOCAL_TIME ( 13, 18, 35.00000000000000000, #149 ) ;
#109 = PRODUCT_DEFINITION_FORMATION_WITH_SPECIFIED_SOURCE ( 'ANY', '', #146, .NOT_KNOWN. ) ;
#110 = CARTESIAN_POINT ( 'NONE',  ( 0.0000000000000000000, 0.0000000000000000000, -1.500000000000000000 ) ) ;
#111 = AXIS2_PLACEMENT_3D ( 'NONE', #154, #55, #122 ) ;
#112 = CARTESIAN_POINT ( 'NONE',  ( -25.39999999999999858, 0.0000000000000000000, -1.500000000000000000 ) ) ;
#113 = PERSON_AND_ORGANIZATION ( #130, #80 ) ;
#114 = APPROVAL ( #165, 'UNSPECIFIED' ) ;
#115 = DIRECTION ( 'NONE',  ( -0.0000000000000000000, -0.0000000000000000000, -1.000000000000000000 ) ) ;
#116 = DIRECTION ( 'NONE',  ( -1.000000000000000000, 0.0000000000000000000, 0.0000000000000000000 ) ) ;
#117 = COORDINATED_UNIVERSAL_TIME_OFFSET ( 5, 0, .BEHIND. ) ;
#118 = PRODUCT_RELATED_PRODUCT_CATEGORY ( 'detail', '', ( #146 ) ) ;
#119 = APPROVAL_ROLE ( '' ) ;
#120 = CYLINDRICAL_SURFACE ( 'NONE', #75, 25.39999999999999858 ) ;
#121 = DATE_TIME_ROLE ( 'classification_date' ) ;
#122 = DIRECTION ( 'NONE',  ( 1.000000000000000000, 0.0000000000000000000, 0.0000000000000000000 ) ) ;
#123 = EDGE_CURVE ( 'NONE', #138, #73, #132, .T. ) ;
#124 = LOCAL_TIME ( 13, 18, 35.00000000000000000, #19 ) ;
#125 = LINE ( 'NONE', #60, #83 ) ;
#126 = ORIENTED_EDGE ( 'NONE', *, *, #2, .T. ) ;
#127 = DIRECTION ( 'NONE',  ( 0.0000000000000000000, 0.0000000000000000000, 1.000000000000000000 ) ) ;
#128 = ADVANCED_FACE ( 'NONE', ( #33 ), #120, .T. ) ;
#129 = CARTESIAN_POINT ( 'NONE',  ( 25.39999999999999858, 3.110602869834276865E-15, -1.500000000000000000 ) ) ;
#130 = PERSON ( 'UNSPECIFIED', 'UNSPECIFIED', 'UNSPECIFIED', ('UNSPECIFIED'), ('UNSPECIFIED'), ('UNSPECIFIED') ) ;
#131 = DIRECTION ( 'NONE',  ( -1.000000000000000000, 0.0000000000000000000, 0.0000000000000000000 ) ) ;
#132 = CIRCLE ( 'NONE', #79, 25.39999999999999858 ) ;
#133 = APPLICATION_PROTOCOL_DEFINITION ( 'international standard', 'config_control_design', 1994, #174 ) ;
#134 = EDGE_CURVE ( 'NONE', #138, #36, #158, .T. ) ;
#135 = AXIS2_PLACEMENT_3D ( 'NONE', #110, #155, #99 ) ;
#136 = CLOSED_SHELL ( 'NONE', ( #128, #142, #85, #31 ) ) ;
#137 = PERSON_AND_ORGANIZATION ( #130, #80 ) ;
#138 = VERTEX_POINT ( 'NONE', #160 ) ;
#139 = PERSON_AND_ORGANIZATION ( #130, #80 ) ;
#140 = AXIS2_PLACEMENT_3D ( 'NONE', #7, #171, #37 ) ;
#141 = APPROVAL_DATE_TIME ( #4, #114 ) ;
#142 = ADVANCED_FACE ( 'NONE', ( #69 ), #57, .T. ) ;
#143 = PERSON_AND_ORGANIZATION_ROLE ( 'creator' ) ;
#144 = ORIENTED_EDGE ( 'NONE', *, *, #161, .T. ) ;
#145 = CC_DESIGN_DATE_AND_TIME_ASSIGNMENT ( #173, #121, ( #95 ) ) ;
#146 = PRODUCT ( 'Web Model 11875_14810', 'Web Model 11875_14810', '', ( #48 ) ) ;
#147 = COORDINATED_UNIVERSAL_TIME_OFFSET ( 5, 0, .BEHIND. ) ;
#148 = CIRCLE ( 'NONE', #27, 25.39999999999999858 ) ;
#149 = COORDINATED_UNIVERSAL_TIME_OFFSET ( 5, 0, .BEHIND. ) ;
#150 = PERSON_AND_ORGANIZATION_ROLE ( 'creator' ) ;
#151 = DESIGN_CONTEXT ( 'detailed design', #174, 'design' ) ;
#152 = APPROVAL_PERSON_ORGANIZATION ( #156, #41, #84 ) ;
#153 = CC_DESIGN_PERSON_AND_ORGANIZATION_ASSIGNMENT ( #67, #150, ( #109 ) ) ;
#154 = CARTESIAN_POINT ( 'NONE',  ( 0.0000000000000000000, 0.0000000000000000000, -1.500000000000000000 ) ) ;
#155 = DIRECTION ( 'NONE',  ( 0.0000000000000000000, 0.0000000000000000000, 1.000000000000000000 ) ) ;
#156 = PERSON_AND_ORGANIZATION ( #130, #80 ) ;
#157 = DIRECTION ( 'NONE',  ( 0.0000000000000000000, 0.0000000000000000000, 1.000000000000000000 ) ) ;
#158 = LINE ( 'NONE', #72, #71 ) ;
#159 = CARTESIAN_POINT ( 'NONE',  ( 0.0000000000000000000, 0.0000000000000000000, 1.500000000000000000 ) ) ;
#160 = CARTESIAN_POINT ( 'NONE',  ( 25.39999999999999858, 3.110602869834276865E-15, 1.500000000000000000 ) ) ;
#161 = EDGE_CURVE ( 'NONE', #36, #92, #49, .T. ) ;
#162 = PRODUCT_DEFINITION ( 'UNKNOWN', '', #109, #151 ) ;
#163 = ORIENTED_EDGE ( 'NONE', *, *, #167, .F. ) ;
#164 = ORIENTED_EDGE ( 'NONE', *, *, #2, .F. ) ;
#165 = APPROVAL_STATUS ( 'not_yet_approved' ) ;
#166 = FACE_OUTER_BOUND ( 'NONE', #28, .T. ) ;
#167 = EDGE_CURVE ( 'NONE', #73, #92, #125, .T. ) ;
#168 = PLANE ( 'NONE',  #66 ) ;
#169 = DIRECTION ( 'NONE',  ( -0.0000000000000000000, -0.0000000000000000000, -1.000000000000000000 ) ) ;
#170 = CC_DESIGN_APPROVAL ( #114, ( #109 ) ) ;
#171 = DIRECTION ( 'NONE',  ( 0.0000000000000000000, 0.0000000000000000000, 1.000000000000000000 ) ) ;
#172 =( LENGTH_UNIT ( ) NAMED_UNIT ( * ) SI_UNIT ( .MILLI., .METRE. ) );
#173 = DATE_AND_TIME ( #30, #1 ) ;
#174 = APPLICATION_CONTEXT ( 'configuration controlled 3d designs of mechanical parts and assemblies' ) ;
#175 = EDGE_LOOP ( 'NONE', ( #25, #59, #56, #126 ) ) ;
ENDSEC;
END-ISO-10303-21;
