ISO-10303-21;
HEADER;
FILE_DESCRIPTION (( 'STEP AP214' ),
    '1' );
FILE_NAME ('3250-E0W.STEP',
    '2016-11-02T16:00:06',
    ( 'admin' ),
    ( '' ),
    'SwSTEP 2.0',
    'SolidWorks 2016',
    '' );
FILE_SCHEMA (( 'AUTOMOTIVE_DESIGN' ));
ENDSEC;

DATA;
#1 = DIRECTION ( 'NONE',  ( 0.0000000000000000000, 0.0000000000000000000, -1.000000000000000000 ) ) ;
#2 = FACE_OUTER_BOUND ( 'NONE', #174, .T. ) ;
#3 = ORIENTED_EDGE ( 'NONE', *, *, #161, .T. ) ;
#4 = DIRECTION ( 'NONE',  ( -0.0000000000000000000, -0.0000000000000000000, 1.000000000000000000 ) ) ;
#5 = MECHANICAL_DESIGN_GEOMETRIC_PRESENTATION_REPRESENTATION (  '', ( #265 ), #21 ) ;
#6 =( NAMED_UNIT ( * ) PLANE_ANGLE_UNIT ( ) SI_UNIT ( $, .RADIAN. ) );
#7 =( LENGTH_UNIT ( ) NAMED_UNIT ( * ) SI_UNIT ( $, .METRE. ) );
#8 = PLANE ( 'NONE',  #252 ) ;
#9 =( NAMED_UNIT ( * ) SI_UNIT ( $, .STERADIAN. ) SOLID_ANGLE_UNIT ( ) );
#10 = EDGE_CURVE ( 'NONE', #51, #19, #167, .T. ) ;
#11 = CIRCLE ( 'NONE', #151, 0.5000000000000000000 ) ;
#12 = ORIENTED_EDGE ( 'NONE', *, *, #88, .F. ) ;
#13 =( NAMED_UNIT ( * ) PLANE_ANGLE_UNIT ( ) SI_UNIT ( $, .RADIAN. ) );
#14 = UNCERTAINTY_MEASURE_WITH_UNIT (LENGTH_MEASURE( 1.000000000000000100E-005 ), #140, 'distance_accuracy_value', 'NONE');
#15 = FILL_AREA_STYLE_COLOUR ( '', #35 ) ;
#16 = DIRECTION ( 'NONE',  ( 1.000000000000000000, 0.0000000000000000000, 0.0000000000000000000 ) ) ;
#17 = AXIS2_PLACEMENT_3D ( 'NONE', #266, #129, #16 ) ;
#18 = AXIS2_PLACEMENT_3D ( 'NONE', #189, #32, #160 ) ;
#19 = VERTEX_POINT ( 'NONE', #128 ) ;
#20 = UNCERTAINTY_MEASURE_WITH_UNIT (LENGTH_MEASURE( 1.000000000000000100E-005 ), #240, 'distance_accuracy_value', 'NONE');
#21 =( GEOMETRIC_REPRESENTATION_CONTEXT ( 3 ) GLOBAL_UNCERTAINTY_ASSIGNED_CONTEXT ( ( #230 ) ) GLOBAL_UNIT_ASSIGNED_CONTEXT ( ( #157, #6, #136 ) ) REPRESENTATION_CONTEXT ( 'NONE', 'WORKASPACE' ) );
#22 = SURFACE_STYLE_FILL_AREA ( #135 ) ;
#23 = CYLINDRICAL_SURFACE ( 'NONE', #244, 0.5000000000000000000 ) ;
#24 = VERTEX_POINT ( 'NONE', #280 ) ;
#25 = CARTESIAN_POINT ( 'NONE',  ( 0.0000000000000000000, 0.0000000000000000000, -1.123425196850393700 ) ) ;
#26 = DIRECTION ( 'NONE',  ( -0.0000000000000000000, -0.0000000000000000000, 1.000000000000000000 ) ) ;
#27 = CIRCLE ( 'NONE', #52, 0.5000000000000000000 ) ;
#28 =( LENGTH_UNIT ( ) NAMED_UNIT ( * ) SI_UNIT ( $, .METRE. ) );
#29 = CARTESIAN_POINT ( 'NONE',  ( 0.5000000000000000000, 0.0000000000000000000, -0.01439027408334227400 ) ) ;
#30 = PRODUCT_DEFINITION ( 'UNKNOWN', '', #46, #199 ) ;
#31 = SURFACE_SIDE_STYLE ('',( #154 ) ) ;
#32 = DIRECTION ( 'NONE',  ( -0.0000000000000000000, -0.0000000000000000000, 1.000000000000000000 ) ) ;
#33 = PRODUCT_DEFINITION_SHAPE ( 'NONE', 'NONE',  #30 ) ;
#34 =( CONVERSION_BASED_UNIT ( 'INCH', #180 ) LENGTH_UNIT ( ) NAMED_UNIT ( #223 ) );
#35 = COLOUR_RGB ( '',0.9568627450980391500, 0.9490196078431372100, 0.9607843137254902200 ) ;
#36 = AXIS2_PLACEMENT_3D ( 'NONE', #257, #103, #233 ) ;
#37 =( NAMED_UNIT ( * ) PLANE_ANGLE_UNIT ( ) SI_UNIT ( $, .RADIAN. ) );
#38 = SURFACE_STYLE_FILL_AREA ( #55 ) ;
#39 = CARTESIAN_POINT ( 'NONE',  ( 0.0000000000000000000, 0.0000000000000000000, 0.1696114978504081300 ) ) ;
#40 = AXIS2_PLACEMENT_3D ( 'NONE', #268, #116, #250 ) ;
#41 = SURFACE_STYLE_USAGE ( .BOTH. , #62 ) ;
#42 = MECHANICAL_DESIGN_GEOMETRIC_PRESENTATION_REPRESENTATION (  '', ( #198 ), #217 ) ;
#43 = FACE_OUTER_BOUND ( 'NONE', #236, .T. ) ;
#44 = LENGTH_MEASURE_WITH_UNIT ( LENGTH_MEASURE( 0.02539999999999999900 ), #7 );
#45 = ORIENTED_EDGE ( 'NONE', *, *, #88, .T. ) ;
#46 = PRODUCT_DEFINITION_FORMATION_WITH_SPECIFIED_SOURCE ( 'ANY', '', #94, .NOT_KNOWN. ) ;
#47 = DIMENSIONAL_EXPONENTS ( 1.000000000000000000, 0.0000000000000000000, 0.0000000000000000000, 0.0000000000000000000, 0.0000000000000000000, 0.0000000000000000000, 0.0000000000000000000 ) ;
#48 =( GEOMETRIC_REPRESENTATION_CONTEXT ( 3 ) GLOBAL_UNCERTAINTY_ASSIGNED_CONTEXT ( ( #132 ) ) GLOBAL_UNIT_ASSIGNED_CONTEXT ( ( #34, #163, #9 ) ) REPRESENTATION_CONTEXT ( 'NONE', 'WORKASPACE' ) );
#49 = DIRECTION ( 'NONE',  ( -1.000000000000000000, 0.0000000000000000000, 0.0000000000000000000 ) ) ;
#50 = FILL_AREA_STYLE_COLOUR ( '', #276 ) ;
#51 = VERTEX_POINT ( 'NONE', #84 ) ;
#52 = AXIS2_PLACEMENT_3D ( 'NONE', #184, #26, #155 ) ;
#53 = SURFACE_SIDE_STYLE ('',( #173 ) ) ;
#54 = CARTESIAN_POINT ( 'NONE',  ( -0.5000000000000000000, 6.123233995736766000E-017, 0.1696114978504081300 ) ) ;
#55 = FILL_AREA_STYLE ('',( #78 ) ) ;
#56 = SURFACE_STYLE_USAGE ( .BOTH. , #211 ) ;
#57 = DIRECTION ( 'NONE',  ( 1.000000000000000000, 0.0000000000000000000, 0.0000000000000000000 ) ) ;
#58 = FACE_OUTER_BOUND ( 'NONE', #125, .T. ) ;
#59 = APPLICATION_PROTOCOL_DEFINITION ( 'draft international standard', 'automotive_design', 1998, #194 ) ;
#60 = PRESENTATION_STYLE_ASSIGNMENT (( #41 ) ) ;
#61 = ORIENTED_EDGE ( 'NONE', *, *, #220, .F. ) ;
#62 = SURFACE_SIDE_STYLE ('',( #210 ) ) ;
#63 = PRODUCT_RELATED_PRODUCT_CATEGORY ( 'part', '', ( #94 ) ) ;
#64 = FACE_OUTER_BOUND ( 'NONE', #283, .T. ) ;
#65 = ORIENTED_EDGE ( 'NONE', *, *, #10, .F. ) ;
#66 =( GEOMETRIC_REPRESENTATION_CONTEXT ( 3 ) GLOBAL_UNCERTAINTY_ASSIGNED_CONTEXT ( ( #68 ) ) GLOBAL_UNIT_ASSIGNED_CONTEXT ( ( #255, #101, #232 ) ) REPRESENTATION_CONTEXT ( 'NONE', 'WORKASPACE' ) );
#67 = AXIS2_PLACEMENT_3D ( 'NONE', #187, #75, #118 ) ;
#68 = UNCERTAINTY_MEASURE_WITH_UNIT (LENGTH_MEASURE( 1.000000000000000100E-005 ), #255, 'distance_accuracy_value', 'NONE');
#69 = AXIS2_PLACEMENT_3D ( 'NONE', #170, #147, #196 ) ;
#70 =( NAMED_UNIT ( * ) SI_UNIT ( $, .STERADIAN. ) SOLID_ANGLE_UNIT ( ) );
#71 = DIMENSIONAL_EXPONENTS ( 1.000000000000000000, 0.0000000000000000000, 0.0000000000000000000, 0.0000000000000000000, 0.0000000000000000000, 0.0000000000000000000, 0.0000000000000000000 ) ;
#72 = VERTEX_POINT ( 'NONE', #239 ) ;
#73 =( GEOMETRIC_REPRESENTATION_CONTEXT ( 3 ) GLOBAL_UNCERTAINTY_ASSIGNED_CONTEXT ( ( #14 ) ) GLOBAL_UNIT_ASSIGNED_CONTEXT ( ( #140, #271, #120 ) ) REPRESENTATION_CONTEXT ( 'NONE', 'WORKASPACE' ) );
#74 = ADVANCED_FACE ( 'NONE', ( #64 ), #23, .T. ) ;
#75 = DIRECTION ( 'NONE',  ( -0.0000000000000000000, -0.0000000000000000000, 1.000000000000000000 ) ) ;
#76 = DIRECTION ( 'NONE',  ( 1.000000000000000000, 0.0000000000000000000, 0.0000000000000000000 ) ) ;
#77 = UNCERTAINTY_MEASURE_WITH_UNIT (LENGTH_MEASURE( 1.000000000000000100E-005 ), #165, 'distance_accuracy_value', 'NONE');
#78 = FILL_AREA_STYLE_COLOUR ( '', #205 ) ;
#79 = FILL_AREA_STYLE ('',( #144 ) ) ;
#80 = VERTEX_POINT ( 'NONE', #29 ) ;
#81 = DIRECTION ( 'NONE',  ( -0.0000000000000000000, -0.0000000000000000000, 1.000000000000000000 ) ) ;
#82 =( LENGTH_UNIT ( ) NAMED_UNIT ( * ) SI_UNIT ( $, .METRE. ) );
#83 = AXIS2_PLACEMENT_3D ( 'NONE', #25, #152, #1 ) ;
#84 = CARTESIAN_POINT ( 'NONE',  ( -6.123233995736764800E-017, -0.4999999999999999400, -0.01439027408334223900 ) ) ;
#85 = VECTOR ( 'NONE', #4, 39.37007874015748100 ) ;
#86 = APPLICATION_CONTEXT ( 'automotive_design' ) ;
#87 = LENGTH_MEASURE_WITH_UNIT ( LENGTH_MEASURE( 0.02539999999999999900 ), #246 );
#88 = EDGE_CURVE ( 'NONE', #72, #168, #124, .T. ) ;
#89 = ORIENTED_EDGE ( 'NONE', *, *, #104, .F. ) ;
#90 = PRESENTATION_STYLE_ASSIGNMENT (( #272 ) ) ;
#91 = FACE_OUTER_BOUND ( 'NONE', #131, .T. ) ;
#92 = PRESENTATION_LAYER_ASSIGNMENT (  '', '', ( #216 ) ) ;
#93 =( CONVERSION_BASED_UNIT ( 'INCH', #87 ) LENGTH_UNIT ( ) NAMED_UNIT ( #285 ) );
#94 = PRODUCT ( '3250-E0W', '3250-E0W', '', ( #215 ) ) ;
#95 = FILL_AREA_STYLE_COLOUR ( '', #254 ) ;
#96 = ADVANCED_FACE ( 'NONE', ( #2 ), #164, .T. ) ;
#97 = LENGTH_MEASURE_WITH_UNIT ( LENGTH_MEASURE( 0.02539999999999999900 ), #126 );
#98 = STYLED_ITEM ( 'NONE', ( #195 ), #269 ) ;
#99 = DIRECTION ( 'NONE',  ( -0.0000000000000000000, -0.0000000000000000000, 1.000000000000000000 ) ) ;
#100 = CARTESIAN_POINT ( 'NONE',  ( 0.0000000000000000000, 3.420814582657666600E-017, -0.09311023622047245900 ) ) ;
#101 =( NAMED_UNIT ( * ) PLANE_ANGLE_UNIT ( ) SI_UNIT ( $, .RADIAN. ) );
#102 = CARTESIAN_POINT ( 'NONE',  ( 0.0000000000000000000, 0.4999999999999999400, -0.01439027408334223900 ) ) ;
#103 = DIRECTION ( 'NONE',  ( -0.0000000000000000000, -0.0000000000000000000, 1.000000000000000000 ) ) ;
#104 = EDGE_CURVE ( 'NONE', #51, #80, #274, .T. ) ;
#105 = SURFACE_SIDE_STYLE ('',( #218 ) ) ;
#106 = LENGTH_MEASURE_WITH_UNIT ( LENGTH_MEASURE( 0.02539999999999999900 ), #28 );
#107 = ORIENTED_EDGE ( 'NONE', *, *, #161, .F. ) ;
#108 = APPLICATION_PROTOCOL_DEFINITION ( 'draft international standard', 'automotive_design', 1998, #86 ) ;
#109 = MECHANICAL_DESIGN_GEOMETRIC_PRESENTATION_REPRESENTATION (  '', ( #251 ), #73 ) ;
#110 = PRESENTATION_LAYER_ASSIGNMENT (  '', '', ( #284 ) ) ;
#111 = PRESENTATION_LAYER_ASSIGNMENT (  '', '', ( #98 ) ) ;
#112 = CARTESIAN_POINT ( 'NONE',  ( 0.0000000000000000000, 0.0000000000000000000, -0.01439027408334227400 ) ) ;
#113 = SURFACE_STYLE_USAGE ( .BOTH. , #267 ) ;
#114 = CIRCLE ( 'NONE', #238, 0.5000000000000000000 ) ;
#115 = DIMENSIONAL_EXPONENTS ( 1.000000000000000000, 0.0000000000000000000, 0.0000000000000000000, 0.0000000000000000000, 0.0000000000000000000, 0.0000000000000000000, 0.0000000000000000000 ) ;
#116 = DIRECTION ( 'NONE',  ( -0.0000000000000000000, -0.0000000000000000000, 1.000000000000000000 ) ) ;
#117 = VERTEX_POINT ( 'NONE', #102 ) ;
#118 = DIRECTION ( 'NONE',  ( 1.000000000000000000, 0.0000000000000000000, 0.0000000000000000000 ) ) ;
#119 = DIRECTION ( 'NONE',  ( 1.000000000000000000, 0.0000000000000000000, 0.0000000000000000000 ) ) ;
#120 =( NAMED_UNIT ( * ) SI_UNIT ( $, .STERADIAN. ) SOLID_ANGLE_UNIT ( ) );
#121 =( LENGTH_UNIT ( ) NAMED_UNIT ( * ) SI_UNIT ( $, .METRE. ) );
#122 = PRESENTATION_LAYER_ASSIGNMENT (  '', '', ( #251 ) ) ;
#123 = DIRECTION ( 'NONE',  ( -1.000000000000000000, 0.0000000000000000000, 0.0000000000000000000 ) ) ;
#124 = CIRCLE ( 'NONE', #36, 0.5000000000000000000 ) ;
#125 = EDGE_LOOP ( 'NONE', ( #258, #182, #278, #89, #61 ) ) ;
#126 =( LENGTH_UNIT ( ) NAMED_UNIT ( * ) SI_UNIT ( $, .METRE. ) );
#127 = MECHANICAL_DESIGN_GEOMETRIC_PRESENTATION_REPRESENTATION (  '', ( #98 ), #138 ) ;
#128 = CARTESIAN_POINT ( 'NONE',  ( 0.0000000000000000000, 7.449131120797877400E-017, 0.09311023622047240300 ) ) ;
#129 = DIRECTION ( 'NONE',  ( 0.0000000000000000000, 0.0000000000000000000, 1.000000000000000000 ) ) ;
#130 = SPHERICAL_SURFACE ( 'NONE', #169, 1.216535433070866000 ) ;
#131 = EDGE_LOOP ( 'NONE', ( #65, #247, #3, #150 ) ) ;
#132 = UNCERTAINTY_MEASURE_WITH_UNIT (LENGTH_MEASURE( 1.000000000000000100E-005 ), #34, 'distance_accuracy_value', 'NONE');
#133 = UNCERTAINTY_MEASURE_WITH_UNIT (LENGTH_MEASURE( 1.000000000000000100E-005 ), #93, 'distance_accuracy_value', 'NONE');
#134 = ORIENTED_EDGE ( 'NONE', *, *, #264, .F. ) ;
#135 = FILL_AREA_STYLE ('',( #95 ) ) ;
#136 =( NAMED_UNIT ( * ) SI_UNIT ( $, .STERADIAN. ) SOLID_ANGLE_UNIT ( ) );
#137 = CIRCLE ( 'NONE', #83, 1.216535433070866000 ) ;
#138 =( GEOMETRIC_REPRESENTATION_CONTEXT ( 3 ) GLOBAL_UNCERTAINTY_ASSIGNED_CONTEXT ( ( #133 ) ) GLOBAL_UNIT_ASSIGNED_CONTEXT ( ( #93, #222, #70 ) ) REPRESENTATION_CONTEXT ( 'NONE', 'WORKASPACE' ) );
#139 = CARTESIAN_POINT ( 'NONE',  ( 0.0000000000000000000, 0.0000000000000000000, -0.01439027408334227400 ) ) ;
#140 =( CONVERSION_BASED_UNIT ( 'INCH', #44 ) LENGTH_UNIT ( ) NAMED_UNIT ( #71 ) );
#141 = SURFACE_SIDE_STYLE ('',( #38 ) ) ;
#142 = UNCERTAINTY_MEASURE_WITH_UNIT (LENGTH_MEASURE( 1.000000000000000100E-005 ), #277, 'distance_accuracy_value', 'NONE');
#143 = ORIENTED_EDGE ( 'NONE', *, *, #220, .T. ) ;
#144 = FILL_AREA_STYLE_COLOUR ( '', #241 ) ;
#145 =( NAMED_UNIT ( * ) SI_UNIT ( $, .STERADIAN. ) SOLID_ANGLE_UNIT ( ) );
#146 = CIRCLE ( 'NONE', #40, 0.5000000000000000000 ) ;
#147 = DIRECTION ( 'NONE',  ( -1.000000000000000000, 1.224646799147353200E-016, 0.0000000000000000000 ) ) ;
#148 = PRESENTATION_STYLE_ASSIGNMENT (( #56 ) ) ;
#149 = MANIFOLD_SOLID_BREP ( '3250-001-1-solid1', #219 ) ;
#150 = ORIENTED_EDGE ( 'NONE', *, *, #264, .T. ) ;
#151 = AXIS2_PLACEMENT_3D ( 'NONE', #112, #245, #57 ) ;
#152 = DIRECTION ( 'NONE',  ( 1.000000000000000000, 0.0000000000000000000, 0.0000000000000000000 ) ) ;
#153 = PRESENTATION_STYLE_ASSIGNMENT (( #259 ) ) ;
#154 = SURFACE_STYLE_FILL_AREA ( #188 ) ;
#155 = DIRECTION ( 'NONE',  ( 1.000000000000000000, 0.0000000000000000000, 0.0000000000000000000 ) ) ;
#156 = ADVANCED_FACE ( 'NONE', ( #43 ), #8, .F. ) ;
#157 =( CONVERSION_BASED_UNIT ( 'INCH', #106 ) LENGTH_UNIT ( ) NAMED_UNIT ( #179 ) );
#158 = CARTESIAN_POINT ( 'NONE',  ( -0.5000000000000000000, 6.123233995736766000E-017, -0.09311023622047247300 ) ) ;
#159 = SURFACE_STYLE_USAGE ( .BOTH. , #31 ) ;
#160 = DIRECTION ( 'NONE',  ( 1.000000000000000000, 0.0000000000000000000, 0.0000000000000000000 ) ) ;
#161 = EDGE_CURVE ( 'NONE', #80, #117, #114, .T. ) ;
#162 = FILL_AREA_STYLE ('',( #15 ) ) ;
#163 =( NAMED_UNIT ( * ) PLANE_ANGLE_UNIT ( ) SI_UNIT ( $, .RADIAN. ) );
#164 = SPHERICAL_SURFACE ( 'NONE', #203, 1.216535433070866000 ) ;
#165 =( CONVERSION_BASED_UNIT ( 'INCH', #234 ) LENGTH_UNIT ( ) NAMED_UNIT ( #206 ) );
#166 = COLOUR_RGB ( '',0.9568627450980391500, 0.9490196078431372100, 0.9607843137254902200 ) ;
#167 = CIRCLE ( 'NONE', #69, 1.216535433070866000 ) ;
#168 = VERTEX_POINT ( 'NONE', #158 ) ;
#169 = AXIS2_PLACEMENT_3D ( 'NONE', #225, #49, #178 ) ;
#170 = CARTESIAN_POINT ( 'NONE',  ( 0.0000000000000000000, 0.0000000000000000000, -1.123425196850393700 ) ) ;
#171 =( NAMED_UNIT ( * ) SI_UNIT ( $, .STERADIAN. ) SOLID_ANGLE_UNIT ( ) );
#172 = ADVANCED_BREP_SHAPE_REPRESENTATION ( '3250-E0W', ( #149, #17 ), #186 ) ;
#173 = SURFACE_STYLE_FILL_AREA ( #207 ) ;
#174 = EDGE_LOOP ( 'NONE', ( #193, #143, #204, #134 ) ) ;
#175 = EDGE_CURVE ( 'NONE', #168, #24, #282, .T. ) ;
#176 = LENGTH_MEASURE_WITH_UNIT ( LENGTH_MEASURE( 0.02539999999999999900 ), #121 );
#177 = PRESENTATION_STYLE_ASSIGNMENT (( #159 ) ) ;
#178 = DIRECTION ( 'NONE',  ( 0.0000000000000000000, 1.000000000000000000, 0.0000000000000000000 ) ) ;
#179 = DIMENSIONAL_EXPONENTS ( 1.000000000000000000, 0.0000000000000000000, 0.0000000000000000000, 0.0000000000000000000, 0.0000000000000000000, 0.0000000000000000000, 0.0000000000000000000 ) ;
#180 = LENGTH_MEASURE_WITH_UNIT ( LENGTH_MEASURE( 0.02539999999999999900 ), #191 );
#181 = CARTESIAN_POINT ( 'NONE',  ( 0.0000000000000000000, 0.0000000000000000000, -1.123425196850393700 ) ) ;
#182 = ORIENTED_EDGE ( 'NONE', *, *, #209, .T. ) ;
#183 = ADVANCED_FACE ( 'NONE', ( #58 ), #202, .T. ) ;
#184 = CARTESIAN_POINT ( 'NONE',  ( 0.0000000000000000000, 0.0000000000000000000, -0.09311023622047247300 ) ) ;
#185 = SURFACE_STYLE_USAGE ( .BOTH. , #53 ) ;
#186 =( GEOMETRIC_REPRESENTATION_CONTEXT ( 3 ) GLOBAL_UNCERTAINTY_ASSIGNED_CONTEXT ( ( #77 ) ) GLOBAL_UNIT_ASSIGNED_CONTEXT ( ( #165, #37, #192 ) ) REPRESENTATION_CONTEXT ( 'NONE', 'WORKASPACE' ) );
#187 = CARTESIAN_POINT ( 'NONE',  ( 0.0000000000000000000, 0.0000000000000000000, 0.1696114978504081300 ) ) ;
#188 = FILL_AREA_STYLE ('',( #208 ) ) ;
#189 = CARTESIAN_POINT ( 'NONE',  ( 0.0000000000000000000, 0.0000000000000000000, -0.01439027408334227400 ) ) ;
#190 = MECHANICAL_DESIGN_GEOMETRIC_PRESENTATION_REPRESENTATION (  '', ( #216 ), #48 ) ;
#191 =( LENGTH_UNIT ( ) NAMED_UNIT ( * ) SI_UNIT ( $, .METRE. ) );
#192 =( NAMED_UNIT ( * ) SI_UNIT ( $, .STERADIAN. ) SOLID_ANGLE_UNIT ( ) );
#193 = ORIENTED_EDGE ( 'NONE', *, *, #275, .T. ) ;
#194 = APPLICATION_CONTEXT ( 'automotive_design' ) ;
#195 = PRESENTATION_STYLE_ASSIGNMENT (( #113 ) ) ;
#196 = DIRECTION ( 'NONE',  ( -1.224646799147353500E-016, -1.000000000000000000, 0.0000000000000000000 ) ) ;
#197 =( LENGTH_UNIT ( ) NAMED_UNIT ( * ) SI_UNIT ( $, .METRE. ) );
#198 = STYLED_ITEM ( 'NONE', ( #60 ), #74 ) ;
#199 = PRODUCT_DEFINITION_CONTEXT ( 'detailed design', #86, 'design' ) ;
#200 = ORIENTED_EDGE ( 'NONE', *, *, #248, .F. ) ;
#201 = ORIENTED_EDGE ( 'NONE', *, *, #175, .T. ) ;
#202 = CYLINDRICAL_SURFACE ( 'NONE', #67, 0.5000000000000000000 ) ;
#203 = AXIS2_PLACEMENT_3D ( 'NONE', #181, #123, #256 ) ;
#204 = ORIENTED_EDGE ( 'NONE', *, *, #10, .T. ) ;
#205 = COLOUR_RGB ( '',0.7921568627450980000, 0.8196078431372548800, 0.9333333333333333500 ) ;
#206 = DIMENSIONAL_EXPONENTS ( 1.000000000000000000, 0.0000000000000000000, 0.0000000000000000000, 0.0000000000000000000, 0.0000000000000000000, 0.0000000000000000000, 0.0000000000000000000 ) ;
#207 = FILL_AREA_STYLE ('',( #228 ) ) ;
#208 = FILL_AREA_STYLE_COLOUR ( '', #213 ) ;
#209 = EDGE_CURVE ( 'NONE', #168, #72, #27, .T. ) ;
#210 = SURFACE_STYLE_FILL_AREA ( #162 ) ;
#211 = SURFACE_SIDE_STYLE ('',( #226 ) ) ;
#212 = DIRECTION ( 'NONE',  ( 1.000000000000000000, 0.0000000000000000000, 0.0000000000000000000 ) ) ;
#213 = COLOUR_RGB ( '',0.9568627450980391500, 0.9490196078431372100, 0.9607843137254902200 ) ;
#214 = STYLED_ITEM ( 'NONE', ( #153 ), #172 ) ;
#215 = PRODUCT_CONTEXT ( 'NONE', #194, 'mechanical' ) ;
#216 = STYLED_ITEM ( 'NONE', ( #148 ), #96 ) ;
#217 =( GEOMETRIC_REPRESENTATION_CONTEXT ( 3 ) GLOBAL_UNCERTAINTY_ASSIGNED_CONTEXT ( ( #20 ) ) GLOBAL_UNIT_ASSIGNED_CONTEXT ( ( #240, #261, #171 ) ) REPRESENTATION_CONTEXT ( 'NONE', 'WORKASPACE' ) );
#218 = SURFACE_STYLE_FILL_AREA ( #237 ) ;
#219 = CLOSED_SHELL ( 'NONE', ( #74, #96, #269, #183, #156 ) ) ;
#220 = EDGE_CURVE ( 'NONE', #24, #51, #146, .T. ) ;
#221 = LENGTH_MEASURE_WITH_UNIT ( LENGTH_MEASURE( 0.02539999999999999900 ), #197 );
#222 =( NAMED_UNIT ( * ) PLANE_ANGLE_UNIT ( ) SI_UNIT ( $, .RADIAN. ) );
#223 = DIMENSIONAL_EXPONENTS ( 1.000000000000000000, 0.0000000000000000000, 0.0000000000000000000, 0.0000000000000000000, 0.0000000000000000000, 0.0000000000000000000, 0.0000000000000000000 ) ;
#224 = VECTOR ( 'NONE', #99, 39.37007874015748100 ) ;
#225 = CARTESIAN_POINT ( 'NONE',  ( 0.0000000000000000000, 0.0000000000000000000, -1.123425196850393700 ) ) ;
#226 = SURFACE_STYLE_FILL_AREA ( #79 ) ;
#227 = ORIENTED_EDGE ( 'NONE', *, *, #209, .F. ) ;
#228 = FILL_AREA_STYLE_COLOUR ( '', #166 ) ;
#229 = PRESENTATION_LAYER_ASSIGNMENT (  '', '', ( #214 ) ) ;
#230 = UNCERTAINTY_MEASURE_WITH_UNIT (LENGTH_MEASURE( 1.000000000000000100E-005 ), #157, 'distance_accuracy_value', 'NONE');
#231 = DIRECTION ( 'NONE',  ( 0.0000000000000000000, -0.0000000000000000000, 1.000000000000000000 ) ) ;
#232 =( NAMED_UNIT ( * ) SI_UNIT ( $, .STERADIAN. ) SOLID_ANGLE_UNIT ( ) );
#233 = DIRECTION ( 'NONE',  ( 1.000000000000000000, 0.0000000000000000000, 0.0000000000000000000 ) ) ;
#234 = LENGTH_MEASURE_WITH_UNIT ( LENGTH_MEASURE( 0.02539999999999999900 ), #82 );
#235 = PRESENTATION_STYLE_ASSIGNMENT (( #185 ) ) ;
#236 = EDGE_LOOP ( 'NONE', ( #12, #227 ) ) ;
#237 = FILL_AREA_STYLE ('',( #50 ) ) ;
#238 = AXIS2_PLACEMENT_3D ( 'NONE', #139, #270, #119 ) ;
#239 = CARTESIAN_POINT ( 'NONE',  ( 0.5000000000000000000, 0.0000000000000000000, -0.09311023622047247300 ) ) ;
#240 =( CONVERSION_BASED_UNIT ( 'INCH', #221 ) LENGTH_UNIT ( ) NAMED_UNIT ( #115 ) );
#241 = COLOUR_RGB ( '',0.9568627450980391500, 0.9490196078431372100, 0.9607843137254902200 ) ;
#242 = ORIENTED_EDGE ( 'NONE', *, *, #275, .F. ) ;
#243 = MECHANICAL_DESIGN_GEOMETRIC_PRESENTATION_REPRESENTATION (  '', ( #214 ), #262 ) ;
#244 = AXIS2_PLACEMENT_3D ( 'NONE', #39, #81, #212 ) ;
#245 = DIRECTION ( 'NONE',  ( -0.0000000000000000000, -0.0000000000000000000, 1.000000000000000000 ) ) ;
#246 =( LENGTH_UNIT ( ) NAMED_UNIT ( * ) SI_UNIT ( $, .METRE. ) );
#247 = ORIENTED_EDGE ( 'NONE', *, *, #104, .T. ) ;
#248 = EDGE_CURVE ( 'NONE', #72, #80, #260, .T. ) ;
#249 = DIMENSIONAL_EXPONENTS ( 1.000000000000000000, 0.0000000000000000000, 0.0000000000000000000, 0.0000000000000000000, 0.0000000000000000000, 0.0000000000000000000, 0.0000000000000000000 ) ;
#250 = DIRECTION ( 'NONE',  ( 1.000000000000000000, 0.0000000000000000000, 0.0000000000000000000 ) ) ;
#251 = STYLED_ITEM ( 'NONE', ( #177 ), #156 ) ;
#252 = AXIS2_PLACEMENT_3D ( 'NONE', #100, #231, #76 ) ;
#253 = CARTESIAN_POINT ( 'NONE',  ( 0.5000000000000000000, 0.0000000000000000000, 0.1696114978504081300 ) ) ;
#254 = COLOUR_RGB ( '',0.9568627450980391500, 0.9490196078431372100, 0.9607843137254902200 ) ;
#255 =( CONVERSION_BASED_UNIT ( 'INCH', #176 ) LENGTH_UNIT ( ) NAMED_UNIT ( #249 ) );
#256 = DIRECTION ( 'NONE',  ( 0.0000000000000000000, 1.000000000000000000, 0.0000000000000000000 ) ) ;
#257 = CARTESIAN_POINT ( 'NONE',  ( 0.0000000000000000000, 0.0000000000000000000, -0.09311023622047247300 ) ) ;
#258 = ORIENTED_EDGE ( 'NONE', *, *, #175, .F. ) ;
#259 = SURFACE_STYLE_USAGE ( .BOTH. , #105 ) ;
#260 = LINE ( 'NONE', #253, #85 ) ;
#261 =( NAMED_UNIT ( * ) PLANE_ANGLE_UNIT ( ) SI_UNIT ( $, .RADIAN. ) );
#262 =( GEOMETRIC_REPRESENTATION_CONTEXT ( 3 ) GLOBAL_UNCERTAINTY_ASSIGNED_CONTEXT ( ( #142 ) ) GLOBAL_UNIT_ASSIGNED_CONTEXT ( ( #277, #13, #145 ) ) REPRESENTATION_CONTEXT ( 'NONE', 'WORKASPACE' ) );
#263 = SHAPE_DEFINITION_REPRESENTATION ( #33, #172 ) ;
#264 = EDGE_CURVE ( 'NONE', #117, #19, #137, .T. ) ;
#265 = STYLED_ITEM ( 'NONE', ( #235 ), #183 ) ;
#266 = CARTESIAN_POINT ( 'NONE',  ( 0.0000000000000000000, 0.0000000000000000000, 0.0000000000000000000 ) ) ;
#267 = SURFACE_SIDE_STYLE ('',( #22 ) ) ;
#268 = CARTESIAN_POINT ( 'NONE',  ( 0.0000000000000000000, 0.0000000000000000000, -0.01439027408334227400 ) ) ;
#269 = ADVANCED_FACE ( 'NONE', ( #91 ), #130, .T. ) ;
#270 = DIRECTION ( 'NONE',  ( -0.0000000000000000000, -0.0000000000000000000, 1.000000000000000000 ) ) ;
#271 =( NAMED_UNIT ( * ) PLANE_ANGLE_UNIT ( ) SI_UNIT ( $, .RADIAN. ) );
#272 = SURFACE_STYLE_USAGE ( .BOTH. , #141 ) ;
#273 = MECHANICAL_DESIGN_GEOMETRIC_PRESENTATION_REPRESENTATION (  '', ( #284 ), #66 ) ;
#274 = CIRCLE ( 'NONE', #18, 0.5000000000000000000 ) ;
#275 = EDGE_CURVE ( 'NONE', #117, #24, #11, .T. ) ;
#276 = COLOUR_RGB ( '',0.7921568627450980000, 0.8196078431372548800, 0.9333333333333333500 ) ;
#277 =( CONVERSION_BASED_UNIT ( 'INCH', #97 ) LENGTH_UNIT ( ) NAMED_UNIT ( #47 ) );
#278 = ORIENTED_EDGE ( 'NONE', *, *, #248, .T. ) ;
#279 = PRESENTATION_LAYER_ASSIGNMENT (  '', '', ( #265 ) ) ;
#280 = CARTESIAN_POINT ( 'NONE',  ( -0.5000000000000000000, 6.123233995736766000E-017, -0.01439027408334227400 ) ) ;
#281 = PRESENTATION_LAYER_ASSIGNMENT (  '', '', ( #198 ) ) ;
#282 = LINE ( 'NONE', #54, #224 ) ;
#283 = EDGE_LOOP ( 'NONE', ( #45, #201, #242, #107, #200 ) ) ;
#284 = STYLED_ITEM ( 'NONE', ( #90 ), #149 ) ;
#285 = DIMENSIONAL_EXPONENTS ( 1.000000000000000000, 0.0000000000000000000, 0.0000000000000000000, 0.0000000000000000000, 0.0000000000000000000, 0.0000000000000000000, 0.0000000000000000000 ) ;
ENDSEC;
END-ISO-10303-21;
