ISO-10303-21;
HEADER;
FILE_DESCRIPTION (( 'STEP AP203' ),
    '1' );
FILE_NAME ('20124-E0W.STEP',
    '2015-06-08T17:21:41',
    ( 'Admin' ),
    ( '' ),
    'SwSTEP 2.0',
    'SolidWorks 2014',
    '' );
FILE_SCHEMA (( 'CONFIG_CONTROL_DESIGN' ));
ENDSEC;

DATA;
#1 = CC_DESIGN_SECURITY_CLASSIFICATION ( #245, ( #135 ) ) ;
#2 = CC_DESIGN_PERSON_AND_ORGANIZATION_ASSIGNMENT ( #80, #127, ( #294 ) ) ;
#3 = ORIENTED_EDGE ( 'NONE', *, *, #178, .F. ) ;
#4 = APPROVAL_DATE_TIME ( #276, #93 ) ;
#5 = FACE_OUTER_BOUND ( 'NONE', #153, .T. ) ;
#6 = CC_DESIGN_DATE_AND_TIME_ASSIGNMENT ( #170, #104, ( #40 ) ) ;
#7 = DIRECTION ( 'NONE',  ( -0.0000000000000000000, 3.061515884555943100E-016, -1.000000000000000000 ) ) ;
#8 = APPROVAL_ROLE ( '' ) ;
#9 = DATE_TIME_ROLE ( 'classification_date' ) ;
#10 = FACE_OUTER_BOUND ( 'NONE', #162, .T. ) ;
#11 = DIRECTION ( 'NONE',  ( 0.0000000000000000000, 1.000000000000000000, 3.662138373397621700E-016 ) ) ;
#12 = MANIFOLD_SOLID_BREP ( '20124-001-1-solid1', #72 ) ;
#13 = EDGE_CURVE ( 'NONE', #202, #137, #184, .T. ) ;
#14 = EDGE_CURVE ( 'NONE', #204, #75, #199, .T. ) ;
#15 = ORIENTED_EDGE ( 'NONE', *, *, #151, .T. ) ;
#16 = AXIS2_PLACEMENT_3D ( 'NONE', #197, #260, #158 ) ;
#17 = EDGE_LOOP ( 'NONE', ( #117, #159, #195, #194 ) ) ;
#18 = ORIENTED_EDGE ( 'NONE', *, *, #73, .T. ) ;
#19 = EDGE_LOOP ( 'NONE', ( #50, #247, #29, #289 ) ) ;
#20 = CONICAL_SURFACE ( 'NONE', #96, 12.55857864376269200, 0.7853981633974463900 ) ;
#21 = ORIENTED_EDGE ( 'NONE', *, *, #196, .F. ) ;
#22 = ORIENTED_EDGE ( 'NONE', *, *, #300, .F. ) ;
#23 = PERSON_AND_ORGANIZATION ( #57, #59 ) ;
#24 = ORIENTED_EDGE ( 'NONE', *, *, #115, .F. ) ;
#25 = CC_DESIGN_DATE_AND_TIME_ASSIGNMENT ( #273, #9, ( #245 ) ) ;
#26 = EDGE_LOOP ( 'NONE', ( #274, #144, #22 ) ) ;
#27 = AXIS2_PLACEMENT_3D ( 'NONE', #181, #41, #296 ) ;
#28 = PERSON_AND_ORGANIZATION_ROLE ( 'classification_officer' ) ;
#29 = ORIENTED_EDGE ( 'NONE', *, *, #164, .T. ) ;
#30 = DESIGN_CONTEXT ( 'detailed design', #188, 'design' ) ;
#31 = FACE_OUTER_BOUND ( 'NONE', #128, .T. ) ;
#32 = CARTESIAN_POINT ( 'NONE',  ( 0.0000000000000000000, 2.967545715995382400E-013, -2424.284999999999900 ) ) ;
#33 = DIRECTION ( 'NONE',  ( -0.0000000000000000000, 3.061515884555943100E-016, -1.000000000000000000 ) ) ;
#34 = ORIENTED_EDGE ( 'NONE', *, *, #13, .T. ) ;
#35 = APPROVAL_STATUS ( 'not_yet_approved' ) ;
#36 = DIRECTION ( 'NONE',  ( 0.0000000000000000000, 1.000000000000000000, 3.107937555406664600E-016 ) ) ;
#37 = EDGE_CURVE ( 'NONE', #137, #49, #146, .T. ) ;
#38 = DIRECTION ( 'NONE',  ( -0.0000000000000000000, 3.061515884555943100E-016, -1.000000000000000000 ) ) ;
#39 = DIRECTION ( 'NONE',  ( -1.000000000000000000, 0.0000000000000000000, 0.0000000000000000000 ) ) ;
#40 = PRODUCT_DEFINITION ( 'UNKNOWN', '', #135, #30 ) ;
#41 = DIRECTION ( 'NONE',  ( 0.0000000000000000000, 0.0000000000000000000, 1.000000000000000000 ) ) ;
#42 = AXIS2_PLACEMENT_3D ( 'NONE', #232, #53, #92 ) ;
#43 = APPROVAL ( #35, 'UNSPECIFIED' ) ;
#44 = CIRCLE ( 'NONE', #98, 2425.300000000000200 ) ;
#45 = ORIENTED_EDGE ( 'NONE', *, *, #192, .T. ) ;
#46 = ADVANCED_FACE ( 'NONE', ( #193 ), #207, .T. ) ;
#47 = MECHANICAL_CONTEXT ( 'NONE', #66, 'mechanical' ) ;
#48 = VECTOR ( 'NONE', #152, 1000.000000000000000 ) ;
#49 = VERTEX_POINT ( 'NONE', #133 ) ;
#50 = ORIENTED_EDGE ( 'NONE', *, *, #151, .F. ) ;
#51 = EDGE_CURVE ( 'NONE', #202, #87, #44, .T. ) ;
#52 = PERSON_AND_ORGANIZATION ( #57, #59 ) ;
#53 = DIRECTION ( 'NONE',  ( -0.0000000000000000000, 3.061515884555943100E-016, -1.000000000000000000 ) ) ;
#54 = VECTOR ( 'NONE', #145, 999.9999999999998900 ) ;
#55 = ORIENTED_EDGE ( 'NONE', *, *, #164, .F. ) ;
#56 = AXIS2_PLACEMENT_3D ( 'NONE', #94, #39, #141 ) ;
#57 = PERSON ( 'UNSPECIFIED', 'UNSPECIFIED', 'UNSPECIFIED', ('UNSPECIFIED'), ('UNSPECIFIED'), ('UNSPECIFIED') ) ;
#58 = PERSON_AND_ORGANIZATION ( #57, #59 ) ;
#59 = ORGANIZATION ( 'UNSPECIFIED', 'UNSPECIFIED', '' ) ;
#60 = DIRECTION ( 'NONE',  ( 1.000000000000000000, 0.0000000000000000000, -0.0000000000000000000 ) ) ;
#61 = CONICAL_SURFACE ( 'NONE', #201, 12.69999999999999900, 0.7853981633974551600 ) ;
#62 = FACE_OUTER_BOUND ( 'NONE', #136, .T. ) ;
#63 = VECTOR ( 'NONE', #33, 1000.000000000000000 ) ;
#64 = AXIS2_PLACEMENT_3D ( 'NONE', #78, #7, #123 ) ;
#65 = APPROVAL ( #252, 'UNSPECIFIED' ) ;
#66 = APPLICATION_CONTEXT ( 'configuration controlled 3d designs of mechanical parts and assemblies' ) ;
#67 = CARTESIAN_POINT ( 'NONE',  ( 1.537982313790821400E-015, -12.55857864375000900, 0.9824846503940737300 ) ) ;
#68 = APPROVAL_PERSON_ORGANIZATION ( #182, #93, #240 ) ;
#69 = CARTESIAN_POINT ( 'NONE',  ( 0.0000000000000000000, -12.55857864376269200, -1.015000000000007700 ) ) ;
#70 = DIRECTION ( 'NONE',  ( 0.0000000000000000000, 0.7071067811865526800, -0.7071067811865424700 ) ) ;
#71 = AXIS2_PLACEMENT_3D ( 'NONE', #223, #105, #149 ) ;
#72 = CLOSED_SHELL ( 'NONE', ( #217, #254, #241, #139, #165, #46, #143, #268, #299 ) ) ;
#73 = EDGE_CURVE ( 'NONE', #87, #137, #103, .T. ) ;
#74 = DIRECTION ( 'NONE',  ( -0.0000000000000000000, 3.061515884555943100E-016, -1.000000000000000000 ) ) ;
#75 = VERTEX_POINT ( 'NONE', #211 ) ;
#76 = CARTESIAN_POINT ( 'NONE',  ( 0.0000000000000000000, 12.70000000000000100, -0.8735786437626895700 ) ) ;
#77 = COORDINATED_UNIVERSAL_TIME_OFFSET ( 5, 0, .BEHIND. ) ;
#78 = CARTESIAN_POINT ( 'NONE',  ( 0.0000000000000000000, -2.392527670718104800E-016, 0.9824846503940737300 ) ) ;
#79 = ORIENTED_EDGE ( 'NONE', *, *, #73, .F. ) ;
#80 = PERSON_AND_ORGANIZATION ( #57, #59 ) ;
#81 = CARTESIAN_POINT ( 'NONE',  ( 0.0000000000000000000, 12.55857864374956500, 0.9824846503940776200 ) ) ;
#82 = FACE_OUTER_BOUND ( 'NONE', #26, .T. ) ;
#83 = AXIS2_PLACEMENT_3D ( 'NONE', #32, #110, #244 ) ;
#84 = EDGE_CURVE ( 'NONE', #49, #230, #198, .T. ) ;
#85 = ORIENTED_EDGE ( 'NONE', *, *, #14, .T. ) ;
#86 = DIRECTION ( 'NONE',  ( 0.0000000000000000000, -1.000000000000000000, -3.107937555406664100E-016 ) ) ;
#87 = VERTEX_POINT ( 'NONE', #67 ) ;
#88 = DIRECTION ( 'NONE',  ( 8.659560562354993300E-017, -0.7071067811865521200, -0.7071067811865430200 ) ) ;
#89 = SECURITY_CLASSIFICATION_LEVEL ( 'unclassified' ) ;
#90 = CALENDAR_DATE ( 2015, 8, 6 ) ;
#91 = DIRECTION ( 'NONE',  ( 0.0000000000000000000, -3.061515884555943100E-016, 1.000000000000000000 ) ) ;
#92 = DIRECTION ( 'NONE',  ( 0.0000000000000000000, 1.000000000000000000, 3.073328992872296400E-016 ) ) ;
#93 = APPROVAL ( #205, 'UNSPECIFIED' ) ;
#94 = CARTESIAN_POINT ( 'NONE',  ( 0.0000000000000000000, 2.967545715995382400E-013, -2424.284999999999900 ) ) ;
#95 = CARTESIAN_POINT ( 'NONE',  ( 1.555301434917138800E-015, -12.70000000000000300, -0.8735786437626974500 ) ) ;
#96 = AXIS2_PLACEMENT_3D ( 'NONE', #114, #91, #86 ) ;
#97 = DIRECTION ( 'NONE',  ( 0.0000000000000000000, 1.000000000000000000, 3.073328992872296400E-016 ) ) ;
#98 = AXIS2_PLACEMENT_3D ( 'NONE', #132, #278, #177 ) ;
#99 = VECTOR ( 'NONE', #214, 1000.000000000000000 ) ;
#100 = LOCAL_TIME ( 13, 21, 41.00000000000000000, #156 ) ;
#101 = LINE ( 'NONE', #171, #63 ) ;
#102 = ORIENTED_EDGE ( 'NONE', *, *, #178, .T. ) ;
#103 = CIRCLE ( 'NONE', #64, 12.55857864376269000 ) ;
#104 = DATE_TIME_ROLE ( 'creation_date' ) ;
#105 = DIRECTION ( 'NONE',  ( -0.0000000000000000000, 3.061515884555943100E-016, -1.000000000000000000 ) ) ;
#106 = CC_DESIGN_APPROVAL ( #93, ( #40 ) ) ;
#107 = CARTESIAN_POINT ( 'NONE',  ( 1.555301434917138400E-015, -12.69999999999999900, 0.8410632941567620600 ) ) ;
#108 = EDGE_CURVE ( 'NONE', #75, #204, #190, .T. ) ;
#109 = CARTESIAN_POINT ( 'NONE',  ( 0.0000000000000000000, 2.967545715995382400E-013, -2424.284999999999900 ) ) ;
#110 = DIRECTION ( 'NONE',  ( 1.000000000000000000, 0.0000000000000000000, -0.0000000000000000000 ) ) ;
#111 = VECTOR ( 'NONE', #88, 999.9999999999998900 ) ;
#112 = ORIENTED_EDGE ( 'NONE', *, *, #108, .F. ) ;
#113 = ORIENTED_EDGE ( 'NONE', *, *, #37, .T. ) ;
#114 = CARTESIAN_POINT ( 'NONE',  ( 0.0000000000000000000, 3.722803315620037000E-016, -1.015000000000003700 ) ) ;
#115 = EDGE_CURVE ( 'NONE', #154, #218, #101, .T. ) ;
#116 = COORDINATED_UNIVERSAL_TIME_OFFSET ( 5, 0, .BEHIND. ) ;
#117 = ORIENTED_EDGE ( 'NONE', *, *, #271, .T. ) ;
#118 = AXIS2_PLACEMENT_3D ( 'NONE', #292, #220, #122 ) ;
#119 = CYLINDRICAL_SURFACE ( 'NONE', #221, 12.69999999999999900 ) ;
#120 = DIRECTION ( 'NONE',  ( -0.0000000000000000000, 3.061515884555943100E-016, -1.000000000000000000 ) ) ;
#121 = DIRECTION ( 'NONE',  ( 0.0000000000000000000, 1.000000000000000000, 3.073328992872296400E-016 ) ) ;
#122 = DIRECTION ( 'NONE',  ( 0.0000000000000000000, 1.000000000000000000, 3.073328992872295900E-016 ) ) ;
#123 = DIRECTION ( 'NONE',  ( 0.0000000000000000000, 1.000000000000000000, 3.107937555406664600E-016 ) ) ;
#124 = CALENDAR_DATE ( 2015, 8, 6 ) ;
#125 = APPLICATION_PROTOCOL_DEFINITION ( 'international standard', 'config_control_design', 1994, #66 ) ;
#126 = CIRCLE ( 'NONE', #265, 12.55857864376269000 ) ;
#127 = PERSON_AND_ORGANIZATION_ROLE ( 'design_owner' ) ;
#128 = EDGE_LOOP ( 'NONE', ( #85, #243 ) ) ;
#129 = CARTESIAN_POINT ( 'NONE',  ( 0.0000000000000000000, 3.289839587084067700E-016, -0.8735786437626934500 ) ) ;
#130 = AXIS2_PLACEMENT_3D ( 'NONE', #172, #279, #169 ) ;
#131 = LOCAL_TIME ( 13, 21, 41.00000000000000000, #280 ) ;
#132 = CARTESIAN_POINT ( 'NONE',  ( 0.0000000000000000000, 2.967545715995382400E-013, -2424.284999999999900 ) ) ;
#133 = CARTESIAN_POINT ( 'NONE',  ( 0.0000000000000000000, 12.69999999999999900, 0.8410632941567698400 ) ) ;
#134 = PERSON_AND_ORGANIZATION_ROLE ( 'design_supplier' ) ;
#135 = PRODUCT_DEFINITION_FORMATION_WITH_SPECIFIED_SOURCE ( 'ANY', '', #294, .NOT_KNOWN. ) ;
#136 = EDGE_LOOP ( 'NONE', ( #250, #102, #275, #258 ) ) ;
#137 = VERTEX_POINT ( 'NONE', #81 ) ;
#138 = ORIENTED_EDGE ( 'NONE', *, *, #84, .T. ) ;
#139 = ADVANCED_FACE ( 'NONE', ( #82 ), #225, .T. ) ;
#140 = APPROVAL_DATE_TIME ( #168, #65 ) ;
#141 = DIRECTION ( 'NONE',  ( 0.0000000000000000000, 0.0000000000000000000, 1.000000000000000000 ) ) ;
#142 =( GEOMETRIC_REPRESENTATION_CONTEXT ( 3 ) GLOBAL_UNCERTAINTY_ASSIGNED_CONTEXT ( ( #167 ) ) GLOBAL_UNIT_ASSIGNED_CONTEXT ( ( #200, #147, #208 ) ) REPRESENTATION_CONTEXT ( 'NONE', 'WORKASPACE' ) );
#143 = ADVANCED_FACE ( 'NONE', ( #10 ), #161, .T. ) ;
#144 = ORIENTED_EDGE ( 'NONE', *, *, #51, .T. ) ;
#145 = DIRECTION ( 'NONE',  ( 0.0000000000000000000, -0.7071067811865463500, 0.7071067811865487900 ) ) ;
#146 = LINE ( 'NONE', #301, #215 ) ;
#147 =( NAMED_UNIT ( * ) PLANE_ANGLE_UNIT ( ) SI_UNIT ( $, .RADIAN. ) );
#148 = APPROVAL_PERSON_ORGANIZATION ( #58, #43, #8 ) ;
#149 = DIRECTION ( 'NONE',  ( 0.0000000000000000000, 1.000000000000000000, 3.061515884555943100E-016 ) ) ;
#150 = DIRECTION ( 'NONE',  ( 0.0000000000000000000, -3.061515884555943100E-016, 1.000000000000000000 ) ) ;
#151 = EDGE_CURVE ( 'NONE', #75, #230, #236, .T. ) ;
#152 = DIRECTION ( 'NONE',  ( 8.659560562354915600E-017, 0.7071067811865459100, 0.7071067811865491300 ) ) ;
#153 = EDGE_LOOP ( 'NONE', ( #112, #15, #266, #55 ) ) ;
#154 = VERTEX_POINT ( 'NONE', #216 ) ;
#155 = LINE ( 'NONE', #107, #111 ) ;
#156 = COORDINATED_UNIVERSAL_TIME_OFFSET ( 5, 0, .BEHIND. ) ;
#157 = LOCAL_TIME ( 13, 21, 41.00000000000000000, #77 ) ;
#158 = DIRECTION ( 'NONE',  ( 0.0000000000000000000, 1.000000000000000000, 3.073328992872296400E-016 ) ) ;
#159 = ORIENTED_EDGE ( 'NONE', *, *, #115, .T. ) ;
#160 = CC_DESIGN_PERSON_AND_ORGANIZATION_ASSIGNMENT ( #210, #185, ( #135 ) ) ;
#161 = CONICAL_SURFACE ( 'NONE', #16, 12.69999999999999900, 0.7853981633974551600 ) ;
#162 = EDGE_LOOP ( 'NONE', ( #3, #18, #113, #233 ) ) ;
#163 = APPLICATION_PROTOCOL_DEFINITION ( 'international standard', 'config_control_design', 1994, #188 ) ;
#164 = EDGE_CURVE ( 'NONE', #204, #218, #222, .T. ) ;
#165 = ADVANCED_FACE ( 'NONE', ( #31 ), #224, .T. ) ;
#166 = PERSON_AND_ORGANIZATION ( #57, #59 ) ;
#167 = UNCERTAINTY_MEASURE_WITH_UNIT (LENGTH_MEASURE( 1.000000000000000100E-005 ), #200, 'distance_accuracy_value', 'NONE');
#168 = DATE_AND_TIME ( #287, #131 ) ;
#169 = DIRECTION ( 'NONE',  ( 0.0000000000000000000, 1.000000000000000000, 3.107937555406664100E-016 ) ) ;
#170 = DATE_AND_TIME ( #124, #231 ) ;
#171 = CARTESIAN_POINT ( 'NONE',  ( 1.555301434917138400E-015, -12.69999999999999900, -1.015000000000003700 ) ) ;
#172 = CARTESIAN_POINT ( 'NONE',  ( 0.0000000000000000000, 3.722803315620037000E-016, -1.015000000000003700 ) ) ;
#173 = CONICAL_SURFACE ( 'NONE', #272, 12.55857864376269200, 0.7853981633974463900 ) ;
#174 = DIRECTION ( 'NONE',  ( 0.0000000000000000000, 1.000000000000000000, 3.073328992872296400E-016 ) ) ;
#175 = CARTESIAN_POINT ( 'NONE',  ( 0.0000000000000000000, -2.972480817832108200E-013, 1.015000000000210200 ) ) ;
#176 = PRODUCT_RELATED_PRODUCT_CATEGORY ( 'detail', '', ( #294 ) ) ;
#177 = DIRECTION ( 'NONE',  ( -1.224646799147353000E-016, 1.000000000000000000, 0.0000000000000000000 ) ) ;
#178 = EDGE_CURVE ( 'NONE', #87, #154, #155, .T. ) ;
#179 = CARTESIAN_POINT ( 'NONE',  ( 1.537982313792428900E-015, 12.55857864376269200, -1.014999999999999900 ) ) ;
#180 = ADVANCED_BREP_SHAPE_REPRESENTATION ( '20124-E0W', ( #12, #27 ), #142 ) ;
#181 = CARTESIAN_POINT ( 'NONE',  ( 0.0000000000000000000, 0.0000000000000000000, 0.0000000000000000000 ) ) ;
#182 = PERSON_AND_ORGANIZATION ( #57, #59 ) ;
#183 = AXIS2_PLACEMENT_3D ( 'NONE', #219, #120, #281 ) ;
#184 = CIRCLE ( 'NONE', #56, 2425.300000000000200 ) ;
#185 = PERSON_AND_ORGANIZATION_ROLE ( 'creator' ) ;
#186 = CC_DESIGN_PERSON_AND_ORGANIZATION_ASSIGNMENT ( #23, #191, ( #40 ) ) ;
#187 = AXIS2_PLACEMENT_3D ( 'NONE', #109, #60, #11 ) ;
#188 = APPLICATION_CONTEXT ( 'configuration controlled 3d designs of mechanical parts and assemblies' ) ;
#189 = CC_DESIGN_PERSON_AND_ORGANIZATION_ASSIGNMENT ( #166, #134, ( #135 ) ) ;
#190 = CIRCLE ( 'NONE', #130, 12.55857864376269200 ) ;
#191 = PERSON_AND_ORGANIZATION_ROLE ( 'creator' ) ;
#192 = EDGE_CURVE ( 'NONE', #154, #49, #238, .T. ) ;
#193 = FACE_OUTER_BOUND ( 'NONE', #257, .T. ) ;
#194 = ORIENTED_EDGE ( 'NONE', *, *, #84, .F. ) ;
#195 = ORIENTED_EDGE ( 'NONE', *, *, #295, .F. ) ;
#196 = EDGE_CURVE ( 'NONE', #218, #230, #291, .T. ) ;
#197 = CARTESIAN_POINT ( 'NONE',  ( 0.0000000000000000000, -1.959563942182143300E-016, 0.8410632941567659500 ) ) ;
#198 = LINE ( 'NONE', #293, #99 ) ;
#199 = CIRCLE ( 'NONE', #183, 12.55857864376269200 ) ;
#200 =( LENGTH_UNIT ( ) NAMED_UNIT ( * ) SI_UNIT ( .MILLI., .METRE. ) );
#201 = AXIS2_PLACEMENT_3D ( 'NONE', #297, #74, #97 ) ;
#202 = VERTEX_POINT ( 'NONE', #175 ) ;
#203 = CIRCLE ( 'NONE', #290, 12.70000000000000100 ) ;
#204 = VERTEX_POINT ( 'NONE', #246 ) ;
#205 = APPROVAL_STATUS ( 'not_yet_approved' ) ;
#206 = EDGE_LOOP ( 'NONE', ( #24, #45, #138, #21 ) ) ;
#207 = SPHERICAL_SURFACE ( 'NONE', #187, 2425.300000000000200 ) ;
#208 =( NAMED_UNIT ( * ) SI_UNIT ( $, .STERADIAN. ) SOLID_ANGLE_UNIT ( ) );
#209 = FACE_OUTER_BOUND ( 'NONE', #17, .T. ) ;
#210 = PERSON_AND_ORGANIZATION ( #57, #59 ) ;
#211 = CARTESIAN_POINT ( 'NONE',  ( 1.546641874354783800E-015, 12.55857864376269200, -1.014999999999999900 ) ) ;
#212 = APPROVAL_ROLE ( '' ) ;
#213 = ORIENTED_EDGE ( 'NONE', *, *, #51, .F. ) ;
#214 = DIRECTION ( 'NONE',  ( -0.0000000000000000000, 3.061515884555943100E-016, -1.000000000000000000 ) ) ;
#215 = VECTOR ( 'NONE', #70, 999.9999999999998900 ) ;
#216 = CARTESIAN_POINT ( 'NONE',  ( 1.555301434917138400E-015, -12.69999999999999900, 0.8410632941567620600 ) ) ;
#217 = ADVANCED_FACE ( 'NONE', ( #5 ), #20, .T. ) ;
#218 = VERTEX_POINT ( 'NONE', #95 ) ;
#219 = CARTESIAN_POINT ( 'NONE',  ( 0.0000000000000000000, 3.722803315620037000E-016, -1.015000000000003700 ) ) ;
#220 = DIRECTION ( 'NONE',  ( -0.0000000000000000000, 3.061515884555943100E-016, -1.000000000000000000 ) ) ;
#221 = AXIS2_PLACEMENT_3D ( 'NONE', #286, #270, #227 ) ;
#222 = LINE ( 'NONE', #69, #54 ) ;
#223 = CARTESIAN_POINT ( 'NONE',  ( 0.0000000000000000000, 3.722803315620031600E-016, -1.015000000000001900 ) ) ;
#224 = PLANE ( 'NONE',  #71 ) ;
#225 = SPHERICAL_SURFACE ( 'NONE', #83, 2425.300000000000200 ) ;
#226 = CALENDAR_DATE ( 2015, 8, 6 ) ;
#227 = DIRECTION ( 'NONE',  ( 0.0000000000000000000, 1.000000000000000000, 3.073328992872296400E-016 ) ) ;
#228 = SHAPE_DEFINITION_REPRESENTATION ( #239, #180 ) ;
#229 = AXIS2_PLACEMENT_3D ( 'NONE', #264, #251, #121 ) ;
#230 = VERTEX_POINT ( 'NONE', #76 ) ;
#231 = LOCAL_TIME ( 13, 21, 41.00000000000000000, #116 ) ;
#232 = CARTESIAN_POINT ( 'NONE',  ( 0.0000000000000000000, -1.959563942182143300E-016, 0.8410632941567659500 ) ) ;
#233 = ORIENTED_EDGE ( 'NONE', *, *, #192, .F. ) ;
#234 = CC_DESIGN_APPROVAL ( #43, ( #135 ) ) ;
#235 = CC_DESIGN_PERSON_AND_ORGANIZATION_ASSIGNMENT ( #52, #28, ( #245 ) ) ;
#236 = LINE ( 'NONE', #179, #48 ) ;
#237 = FACE_OUTER_BOUND ( 'NONE', #206, .T. ) ;
#238 = CIRCLE ( 'NONE', #42, 12.69999999999999900 ) ;
#239 = PRODUCT_DEFINITION_SHAPE ( 'NONE', 'NONE',  #40 ) ;
#240 = APPROVAL_ROLE ( '' ) ;
#241 = ADVANCED_FACE ( 'NONE', ( #62 ), #61, .T. ) ;
#242 = CARTESIAN_POINT ( 'NONE',  ( 0.0000000000000000000, 3.722803315620025700E-016, -1.014999999999999900 ) ) ;
#243 = ORIENTED_EDGE ( 'NONE', *, *, #108, .T. ) ;
#244 = DIRECTION ( 'NONE',  ( 0.0000000000000000000, 1.000000000000000000, 3.662138373397621700E-016 ) ) ;
#245 = SECURITY_CLASSIFICATION ( '', '', #89 ) ;
#246 = CARTESIAN_POINT ( 'NONE',  ( 0.0000000000000000000, -12.55857864376269200, -1.015000000000007700 ) ) ;
#247 = ORIENTED_EDGE ( 'NONE', *, *, #14, .F. ) ;
#248 = AXIS2_PLACEMENT_3D ( 'NONE', #242, #267, #174 ) ;
#249 = APPROVAL_DATE_TIME ( #283, #43 ) ;
#250 = ORIENTED_EDGE ( 'NONE', *, *, #300, .T. ) ;
#251 = DIRECTION ( 'NONE',  ( -0.0000000000000000000, 3.061515884555943100E-016, -1.000000000000000000 ) ) ;
#252 = APPROVAL_STATUS ( 'not_yet_approved' ) ;
#253 = DIRECTION ( 'NONE',  ( -0.0000000000000000000, 3.061515884555943100E-016, -1.000000000000000000 ) ) ;
#254 = ADVANCED_FACE ( 'NONE', ( #209 ), #119, .T. ) ;
#255 = COORDINATED_UNIVERSAL_TIME_OFFSET ( 5, 0, .BEHIND. ) ;
#256 = DIRECTION ( 'NONE',  ( 0.0000000000000000000, 1.000000000000000000, 3.073328992872295900E-016 ) ) ;
#257 = EDGE_LOOP ( 'NONE', ( #213, #34, #79 ) ) ;
#258 = ORIENTED_EDGE ( 'NONE', *, *, #37, .F. ) ;
#259 = CYLINDRICAL_SURFACE ( 'NONE', #248, 12.69999999999999900 ) ;
#260 = DIRECTION ( 'NONE',  ( -0.0000000000000000000, 3.061515884555943100E-016, -1.000000000000000000 ) ) ;
#261 = CARTESIAN_POINT ( 'NONE',  ( 0.0000000000000000000, 3.722803315620037000E-016, -1.015000000000003700 ) ) ;
#262 = CALENDAR_DATE ( 2015, 8, 6 ) ;
#263 = DIRECTION ( 'NONE',  ( 0.0000000000000000000, -1.000000000000000000, -3.107937555406664100E-016 ) ) ;
#264 = CARTESIAN_POINT ( 'NONE',  ( 0.0000000000000000000, -1.959563942182143300E-016, 0.8410632941567659500 ) ) ;
#265 = AXIS2_PLACEMENT_3D ( 'NONE', #277, #38, #36 ) ;
#266 = ORIENTED_EDGE ( 'NONE', *, *, #295, .T. ) ;
#267 = DIRECTION ( 'NONE',  ( -0.0000000000000000000, 3.061515884555943100E-016, -1.000000000000000000 ) ) ;
#268 = ADVANCED_FACE ( 'NONE', ( #237 ), #259, .T. ) ;
#269 = APPROVAL_PERSON_ORGANIZATION ( #285, #65, #212 ) ;
#270 = DIRECTION ( 'NONE',  ( -0.0000000000000000000, 3.061515884555943100E-016, -1.000000000000000000 ) ) ;
#271 = EDGE_CURVE ( 'NONE', #49, #154, #284, .T. ) ;
#272 = AXIS2_PLACEMENT_3D ( 'NONE', #261, #150, #263 ) ;
#273 = DATE_AND_TIME ( #262, #288 ) ;
#274 = ORIENTED_EDGE ( 'NONE', *, *, #13, .F. ) ;
#275 = ORIENTED_EDGE ( 'NONE', *, *, #271, .F. ) ;
#276 = DATE_AND_TIME ( #90, #157 ) ;
#277 = CARTESIAN_POINT ( 'NONE',  ( 0.0000000000000000000, -2.392527670718104800E-016, 0.9824846503940737300 ) ) ;
#278 = DIRECTION ( 'NONE',  ( 1.000000000000000000, 1.224646799147353200E-016, 3.749275628560213600E-032 ) ) ;
#279 = DIRECTION ( 'NONE',  ( -0.0000000000000000000, 3.061515884555943100E-016, -1.000000000000000000 ) ) ;
#280 = COORDINATED_UNIVERSAL_TIME_OFFSET ( 5, 0, .BEHIND. ) ;
#281 = DIRECTION ( 'NONE',  ( 0.0000000000000000000, 1.000000000000000000, 3.107937555406664100E-016 ) ) ;
#282 = FACE_OUTER_BOUND ( 'NONE', #19, .T. ) ;
#283 = DATE_AND_TIME ( #226, #100 ) ;
#284 = CIRCLE ( 'NONE', #229, 12.69999999999999900 ) ;
#285 = PERSON_AND_ORGANIZATION ( #57, #59 ) ;
#286 = CARTESIAN_POINT ( 'NONE',  ( 0.0000000000000000000, 3.722803315620025700E-016, -1.014999999999999900 ) ) ;
#287 = CALENDAR_DATE ( 2015, 8, 6 ) ;
#288 = LOCAL_TIME ( 13, 21, 41.00000000000000000, #255 ) ;
#289 = ORIENTED_EDGE ( 'NONE', *, *, #196, .T. ) ;
#290 = AXIS2_PLACEMENT_3D ( 'NONE', #129, #253, #256 ) ;
#291 = CIRCLE ( 'NONE', #118, 12.70000000000000100 ) ;
#292 = CARTESIAN_POINT ( 'NONE',  ( 0.0000000000000000000, 3.289839587084067700E-016, -0.8735786437626934500 ) ) ;
#293 = CARTESIAN_POINT ( 'NONE',  ( 0.0000000000000000000, 12.69999999999999900, -1.014999999999995900 ) ) ;
#294 = PRODUCT ( '20124-E0W', '20124-E0W', '', ( #47 ) ) ;
#295 = EDGE_CURVE ( 'NONE', #230, #218, #203, .T. ) ;
#296 = DIRECTION ( 'NONE',  ( 1.000000000000000000, 0.0000000000000000000, 0.0000000000000000000 ) ) ;
#297 = CARTESIAN_POINT ( 'NONE',  ( 0.0000000000000000000, -1.959563942182143300E-016, 0.8410632941567659500 ) ) ;
#298 = CC_DESIGN_APPROVAL ( #65, ( #245 ) ) ;
#299 = ADVANCED_FACE ( 'NONE', ( #282 ), #173, .T. ) ;
#300 = EDGE_CURVE ( 'NONE', #137, #87, #126, .T. ) ;
#301 = CARTESIAN_POINT ( 'NONE',  ( 0.0000000000000000000, 12.69999999999999900, 0.8410632941567698400 ) ) ;
ENDSEC;
END-ISO-10303-21;
