ISO-10303-21;
HEADER;
FILE_DESCRIPTION (( 'STEP AP203' ),
    '1' );
FILE_NAME ('Web Model 19837_19848.step',
    '2022-04-06T15:01:28',
    ( 'WC' ),
    ( 'Windows Central' ),
    'SwSTEP 2.0',
    'SolidWorks 2021',
    '' );
FILE_SCHEMA (( 'CONFIG_CONTROL_DESIGN' ));
ENDSEC;

DATA;
#1 = ADVANCED_FACE ( 'NONE', ( #4 ), #154, .T. ) ;
#2 = DIRECTION ( 'NONE',  ( -0.000000000000000000, -0.000000000000000000, -1.000000000000000000 ) ) ;
#3 = VERTEX_POINT ( 'NONE', #85 ) ;
#4 = FACE_OUTER_BOUND ( 'NONE', #96, .T. ) ;
#5 = ADVANCED_FACE ( 'NONE', ( #70 ), #52, .F. ) ;
#6 = CARTESIAN_POINT ( 'NONE',  ( -12.50000000000000000, 0.000000000000000000, 1.000000000000000000 ) ) ;
#7 = ORIENTED_EDGE ( 'NONE', *, *, #97, .F. ) ;
#8 = APPROVAL_ROLE ( '' ) ;
#9 = CC_DESIGN_APPROVAL ( #142, ( #21 ) ) ;
#10 = DATE_AND_TIME ( #119, #95 ) ;
#11 = PERSON_AND_ORGANIZATION_ROLE ( 'classification_officer' ) ;
#12 = DIRECTION ( 'NONE',  ( 1.000000000000000000, 0.000000000000000000, 0.000000000000000000 ) ) ;
#13 = CC_DESIGN_DATE_AND_TIME_ASSIGNMENT ( #146, #91, ( #16 ) ) ;
#14 = APPLICATION_CONTEXT ( 'configuration controlled 3d designs of mechanical parts and assemblies' ) ;
#15 = CC_DESIGN_APPROVAL ( #55, ( #16 ) ) ;
#16 = PRODUCT_DEFINITION ( 'UNKNOWN', '', #53, #143 ) ;
#17 = AXIS2_PLACEMENT_3D ( 'NONE', #65, #79, #66 ) ;
#18 = ORIENTED_EDGE ( 'NONE', *, *, #77, .F. ) ;
#19 = ORIENTED_EDGE ( 'NONE', *, *, #149, .T. ) ;
#20 = APPROVAL_STATUS ( 'not_yet_approved' ) ;
#21 = SECURITY_CLASSIFICATION ( '', '', #75 ) ;
#22 = VECTOR ( 'NONE', #94, 1000.000000000000000 ) ;
#23 = APPROVAL_DATE_TIME ( #170, #163 ) ;
#24 = PERSON_AND_ORGANIZATION_ROLE ( 'design_supplier' ) ;
#25 = PRODUCT_DEFINITION_SHAPE ( 'NONE', 'NONE',  #16 ) ;
#26 = CC_DESIGN_PERSON_AND_ORGANIZATION_ASSIGNMENT ( #72, #58, ( #53 ) ) ;
#27 = EDGE_LOOP ( 'NONE', ( #123, #18 ) ) ;
#28 = CARTESIAN_POINT ( 'NONE',  ( 0.000000000000000000, 0.000000000000000000, 0.000000000000000000 ) ) ;
#29 = UNCERTAINTY_MEASURE_WITH_UNIT (LENGTH_MEASURE( 1.000000000000000082E-05 ), #112, 'distance_accuracy_value', 'NONE');
#30 = DIRECTION ( 'NONE',  ( -0.000000000000000000, -0.000000000000000000, -1.000000000000000000 ) ) ;
#31 = EDGE_LOOP ( 'NONE', ( #165, #57 ) ) ;
#32 = EDGE_CURVE ( 'NONE', #159, #3, #115, .T. ) ;
#33 = ADVANCED_FACE ( 'NONE', ( #171 ), #43, .T. ) ;
#34 = AXIS2_PLACEMENT_3D ( 'NONE', #164, #93, #80 ) ;
#35 = APPLICATION_CONTEXT ( 'configuration controlled 3d designs of mechanical parts and assemblies' ) ;
#36 = CARTESIAN_POINT ( 'NONE',  ( 12.50000000000000000, 1.530808498934191521E-15, 0.000000000000000000 ) ) ;
#37 = CLOSED_SHELL ( 'NONE', ( #175, #1, #33, #5 ) ) ;
#38 = ORIENTED_EDGE ( 'NONE', *, *, #108, .T. ) ;
#39 = CARTESIAN_POINT ( 'NONE',  ( 0.000000000000000000, 0.000000000000000000, 1.000000000000000000 ) ) ;
#40 = APPROVAL_ROLE ( '' ) ;
#41 = PERSON_AND_ORGANIZATION ( #103, #49 ) ;
#42 = CALENDAR_DATE ( 2022, 6, 4 ) ;
#43 = PLANE ( 'NONE',  #126 ) ;
#44 = CC_DESIGN_APPROVAL ( #163, ( #53 ) ) ;
#45 = PERSON_AND_ORGANIZATION_ROLE ( 'creator' ) ;
#46 = DIRECTION ( 'NONE',  ( 0.000000000000000000, 0.000000000000000000, 1.000000000000000000 ) ) ;
#47 = APPROVAL_PERSON_ORGANIZATION ( #127, #55, #76 ) ;
#48 = AXIS2_PLACEMENT_3D ( 'NONE', #138, #67, #155 ) ;
#49 = ORGANIZATION ( 'UNSPECIFIED', 'UNSPECIFIED', '' ) ;
#50 = CIRCLE ( 'NONE', #17, 12.50000000000000000 ) ;
#51 = CARTESIAN_POINT ( 'NONE',  ( 0.000000000000000000, 0.000000000000000000, 1.000000000000000000 ) ) ;
#52 = PLANE ( 'NONE',  #63 ) ;
#53 = PRODUCT_DEFINITION_FORMATION_WITH_SPECIFIED_SOURCE ( 'ANY', '', #106, .NOT_KNOWN. ) ;
#54 = ORIENTED_EDGE ( 'NONE', *, *, #149, .F. ) ;
#55 = APPROVAL ( #20, 'UNSPECIFIED' ) ;
#56 = DIRECTION ( 'NONE',  ( 0.000000000000000000, 0.000000000000000000, 1.000000000000000000 ) ) ;
#57 = ORIENTED_EDGE ( 'NONE', *, *, #97, .T. ) ;
#58 = PERSON_AND_ORGANIZATION_ROLE ( 'creator' ) ;
#59 = APPROVAL_DATE_TIME ( #10, #55 ) ;
#60 = COORDINATED_UNIVERSAL_TIME_OFFSET ( 5, 0, .BEHIND. ) ;
#61 = COORDINATED_UNIVERSAL_TIME_OFFSET ( 5, 0, .BEHIND. ) ;
#62 = CARTESIAN_POINT ( 'NONE',  ( 0.000000000000000000, 0.000000000000000000, 1.000000000000000000 ) ) ;
#63 = AXIS2_PLACEMENT_3D ( 'NONE', #28, #114, #99 ) ;
#64 = EDGE_CURVE ( 'NONE', #111, #168, #50, .T. ) ;
#65 = CARTESIAN_POINT ( 'NONE',  ( 0.000000000000000000, 0.000000000000000000, 0.000000000000000000 ) ) ;
#66 = DIRECTION ( 'NONE',  ( 1.000000000000000000, 0.000000000000000000, 0.000000000000000000 ) ) ;
#67 = DIRECTION ( 'NONE',  ( 0.000000000000000000, 0.000000000000000000, 1.000000000000000000 ) ) ;
#68 = ORIENTED_EDGE ( 'NONE', *, *, #108, .F. ) ;
#69 =( NAMED_UNIT ( * ) SI_UNIT ( $, .STERADIAN. ) SOLID_ANGLE_UNIT ( ) );
#70 = FACE_OUTER_BOUND ( 'NONE', #27, .T. ) ;
#71 = PERSON_AND_ORGANIZATION ( #103, #49 ) ;
#72 = PERSON_AND_ORGANIZATION ( #103, #49 ) ;
#73 = PERSON_AND_ORGANIZATION ( #103, #49 ) ;
#74 = AXIS2_PLACEMENT_3D ( 'NONE', #39, #30, #110 ) ;
#75 = SECURITY_CLASSIFICATION_LEVEL ( 'unclassified' ) ;
#76 = APPROVAL_ROLE ( '' ) ;
#77 = EDGE_CURVE ( 'NONE', #168, #111, #157, .T. ) ;
#78 = LOCAL_TIME ( 11, 1, 28.00000000000000000, #161 ) ;
#79 = DIRECTION ( 'NONE',  ( 0.000000000000000000, 0.000000000000000000, 1.000000000000000000 ) ) ;
#80 = DIRECTION ( 'NONE',  ( 1.000000000000000000, 0.000000000000000000, 0.000000000000000000 ) ) ;
#81 = LOCAL_TIME ( 11, 1, 28.00000000000000000, #102 ) ;
#82 = VECTOR ( 'NONE', #2, 1000.000000000000000 ) ;
#83 = ORIENTED_EDGE ( 'NONE', *, *, #32, .F. ) ;
#84 = CARTESIAN_POINT ( 'NONE',  ( 0.000000000000000000, 0.000000000000000000, 0.000000000000000000 ) ) ;
#85 = CARTESIAN_POINT ( 'NONE',  ( 12.50000000000000000, 1.530808498934191521E-15, 1.000000000000000000 ) ) ;
#86 = APPLICATION_PROTOCOL_DEFINITION ( 'international standard', 'config_control_design', 1994, #35 ) ;
#87 = CC_DESIGN_PERSON_AND_ORGANIZATION_ASSIGNMENT ( #73, #24, ( #53 ) ) ;
#88 = SHAPE_DEFINITION_REPRESENTATION ( #25, #120 ) ;
#89 = PERSON_AND_ORGANIZATION ( #103, #49 ) ;
#90 = LINE ( 'NONE', #144, #82 ) ;
#91 = DATE_TIME_ROLE ( 'creation_date' ) ;
#92 = DIRECTION ( 'NONE',  ( 0.000000000000000000, 0.000000000000000000, 1.000000000000000000 ) ) ;
#93 = DIRECTION ( 'NONE',  ( 0.000000000000000000, 0.000000000000000000, 1.000000000000000000 ) ) ;
#94 = DIRECTION ( 'NONE',  ( -0.000000000000000000, -0.000000000000000000, -1.000000000000000000 ) ) ;
#95 = LOCAL_TIME ( 11, 1, 28.00000000000000000, #61 ) ;
#96 = EDGE_LOOP ( 'NONE', ( #68, #83, #19, #101 ) ) ;
#97 = EDGE_CURVE ( 'NONE', #3, #159, #148, .T. ) ;
#98 = DATE_TIME_ROLE ( 'classification_date' ) ;
#99 = DIRECTION ( 'NONE',  ( 1.000000000000000000, 0.000000000000000000, -0.000000000000000000 ) ) ;
#100 = APPROVAL_STATUS ( 'not_yet_approved' ) ;
#101 = ORIENTED_EDGE ( 'NONE', *, *, #64, .T. ) ;
#102 = COORDINATED_UNIVERSAL_TIME_OFFSET ( 5, 0, .BEHIND. ) ;
#103 = PERSON ( 'UNSPECIFIED', 'UNSPECIFIED', 'UNSPECIFIED', ('UNSPECIFIED'), ('UNSPECIFIED'), ('UNSPECIFIED') ) ;
#104 = CC_DESIGN_DATE_AND_TIME_ASSIGNMENT ( #128, #98, ( #21 ) ) ;
#105 = PERSON_AND_ORGANIZATION ( #103, #49 ) ;
#106 = PRODUCT ( 'Web Model 19837_19848', 'Web Model 19837_19848', '', ( #167 ) ) ;
#107 = APPROVAL_PERSON_ORGANIZATION ( #89, #142, #40 ) ;
#108 = EDGE_CURVE ( 'NONE', #3, #168, #90, .T. ) ;
#109 = AXIS2_PLACEMENT_3D ( 'NONE', #131, #92, #12 ) ;
#110 = DIRECTION ( 'NONE',  ( -1.000000000000000000, 0.000000000000000000, 0.000000000000000000 ) ) ;
#111 = VERTEX_POINT ( 'NONE', #140 ) ;
#112 =( LENGTH_UNIT ( ) NAMED_UNIT ( * ) SI_UNIT ( .MILLI., .METRE. ) );
#113 = DIRECTION ( 'NONE',  ( -0.000000000000000000, -0.000000000000000000, -1.000000000000000000 ) ) ;
#114 = DIRECTION ( 'NONE',  ( 0.000000000000000000, 0.000000000000000000, 1.000000000000000000 ) ) ;
#115 = CIRCLE ( 'NONE', #109, 12.50000000000000000 ) ;
#116 = CYLINDRICAL_SURFACE ( 'NONE', #74, 12.50000000000000000 ) ;
#117 = CALENDAR_DATE ( 2022, 6, 4 ) ;
#118 = PERSON_AND_ORGANIZATION_ROLE ( 'design_owner' ) ;
#119 = CALENDAR_DATE ( 2022, 6, 4 ) ;
#120 = ADVANCED_BREP_SHAPE_REPRESENTATION ( 'Web Model 19837_19848', ( #121, #134 ), #135 ) ;
#121 = MANIFOLD_SOLID_BREP ( 'Boss-Extrude1', #37 ) ;
#122 = FACE_OUTER_BOUND ( 'NONE', #169, .T. ) ;
#123 = ORIENTED_EDGE ( 'NONE', *, *, #64, .F. ) ;
#124 = DIRECTION ( 'NONE',  ( 1.000000000000000000, 0.000000000000000000, 0.000000000000000000 ) ) ;
#125 = LOCAL_TIME ( 11, 1, 28.00000000000000000, #60 ) ;
#126 = AXIS2_PLACEMENT_3D ( 'NONE', #62, #46, #136 ) ;
#127 = PERSON_AND_ORGANIZATION ( #103, #49 ) ;
#128 = DATE_AND_TIME ( #42, #125 ) ;
#129 = CARTESIAN_POINT ( 'NONE',  ( -12.50000000000000000, 0.000000000000000000, 1.000000000000000000 ) ) ;
#130 = CC_DESIGN_PERSON_AND_ORGANIZATION_ASSIGNMENT ( #41, #45, ( #16 ) ) ;
#131 = CARTESIAN_POINT ( 'NONE',  ( 0.000000000000000000, 0.000000000000000000, 1.000000000000000000 ) ) ;
#132 = DATE_AND_TIME ( #117, #78 ) ;
#133 = PERSON_AND_ORGANIZATION ( #103, #49 ) ;
#134 = AXIS2_PLACEMENT_3D ( 'NONE', #84, #56, #124 ) ;
#135 =( GEOMETRIC_REPRESENTATION_CONTEXT ( 3 ) GLOBAL_UNCERTAINTY_ASSIGNED_CONTEXT ( ( #29 ) ) GLOBAL_UNIT_ASSIGNED_CONTEXT ( ( #112, #151, #69 ) ) REPRESENTATION_CONTEXT ( 'NONE', 'WORKASPACE' ) );
#136 = DIRECTION ( 'NONE',  ( 1.000000000000000000, 0.000000000000000000, -0.000000000000000000 ) ) ;
#137 = CC_DESIGN_PERSON_AND_ORGANIZATION_ASSIGNMENT ( #133, #11, ( #21 ) ) ;
#138 = CARTESIAN_POINT ( 'NONE',  ( 0.000000000000000000, 0.000000000000000000, 1.000000000000000000 ) ) ;
#139 = ORIENTED_EDGE ( 'NONE', *, *, #77, .T. ) ;
#140 = CARTESIAN_POINT ( 'NONE',  ( -12.50000000000000000, 0.000000000000000000, 0.000000000000000000 ) ) ;
#141 = APPLICATION_PROTOCOL_DEFINITION ( 'international standard', 'config_control_design', 1994, #14 ) ;
#142 = APPROVAL ( #100, 'UNSPECIFIED' ) ;
#143 = DESIGN_CONTEXT ( 'detailed design', #35, 'design' ) ;
#144 = CARTESIAN_POINT ( 'NONE',  ( 12.50000000000000000, 1.530808498934191521E-15, 1.000000000000000000 ) ) ;
#145 = COORDINATED_UNIVERSAL_TIME_OFFSET ( 5, 0, .BEHIND. ) ;
#146 = DATE_AND_TIME ( #160, #81 ) ;
#147 = AXIS2_PLACEMENT_3D ( 'NONE', #51, #113, #166 ) ;
#148 = CIRCLE ( 'NONE', #48, 12.50000000000000000 ) ;
#149 = EDGE_CURVE ( 'NONE', #159, #111, #158, .T. ) ;
#150 = CC_DESIGN_SECURITY_CLASSIFICATION ( #21, ( #53 ) ) ;
#151 =( NAMED_UNIT ( * ) PLANE_ANGLE_UNIT ( ) SI_UNIT ( $, .RADIAN. ) );
#152 = LOCAL_TIME ( 11, 1, 28.00000000000000000, #145 ) ;
#153 = APPROVAL_DATE_TIME ( #132, #142 ) ;
#154 = CYLINDRICAL_SURFACE ( 'NONE', #147, 12.50000000000000000 ) ;
#155 = DIRECTION ( 'NONE',  ( 1.000000000000000000, 0.000000000000000000, 0.000000000000000000 ) ) ;
#156 = CC_DESIGN_PERSON_AND_ORGANIZATION_ASSIGNMENT ( #71, #118, ( #106 ) ) ;
#157 = CIRCLE ( 'NONE', #34, 12.50000000000000000 ) ;
#158 = LINE ( 'NONE', #129, #22 ) ;
#159 = VERTEX_POINT ( 'NONE', #6 ) ;
#160 = CALENDAR_DATE ( 2022, 6, 4 ) ;
#161 = COORDINATED_UNIVERSAL_TIME_OFFSET ( 5, 0, .BEHIND. ) ;
#162 = APPROVAL_STATUS ( 'not_yet_approved' ) ;
#163 = APPROVAL ( #162, 'UNSPECIFIED' ) ;
#164 = CARTESIAN_POINT ( 'NONE',  ( 0.000000000000000000, 0.000000000000000000, 0.000000000000000000 ) ) ;
#165 = ORIENTED_EDGE ( 'NONE', *, *, #32, .T. ) ;
#166 = DIRECTION ( 'NONE',  ( -1.000000000000000000, 0.000000000000000000, 0.000000000000000000 ) ) ;
#167 = MECHANICAL_CONTEXT ( 'NONE', #14, 'mechanical' ) ;
#168 = VERTEX_POINT ( 'NONE', #36 ) ;
#169 = EDGE_LOOP ( 'NONE', ( #7, #38, #139, #54 ) ) ;
#170 = DATE_AND_TIME ( #173, #152 ) ;
#171 = FACE_OUTER_BOUND ( 'NONE', #31, .T. ) ;
#172 = APPROVAL_PERSON_ORGANIZATION ( #105, #163, #8 ) ;
#173 = CALENDAR_DATE ( 2022, 6, 4 ) ;
#174 = PRODUCT_RELATED_PRODUCT_CATEGORY ( 'detail', '', ( #106 ) ) ;
#175 = ADVANCED_FACE ( 'NONE', ( #122 ), #116, .T. ) ;
ENDSEC;
END-ISO-10303-21;
