ISO-10303-21;
HEADER;
FILE_DESCRIPTION (( 'STEP AP203' ),
    '1' );
FILE_NAME ('Web Model 64402MX_43738.step',
    '2017-10-30T13:10:22',
    ( '' ),
    ( '' ),
    'SwSTEP 2.0',
    'SolidWorks 2016',
    '' );
FILE_SCHEMA (( 'CONFIG_CONTROL_DESIGN' ));
ENDSEC;

DATA;
#1 = DIRECTION ( 'NONE',  ( 1.000000000000000000, 1.387778780781445700E-016, -0.0000000000000000000 ) ) ;
#2 = DIRECTION ( 'NONE',  ( 1.000000000000000000, 1.387778780781445700E-016, -0.0000000000000000000 ) ) ;
#3 = LINE ( 'NONE', #171, #71 ) ;
#4 = EDGE_LOOP ( 'NONE', ( #51, #141, #185, #142 ) ) ;
#5 = CC_DESIGN_PERSON_AND_ORGANIZATION_ASSIGNMENT ( #108, #118, ( #102 ) ) ;
#6 = ADVANCED_FACE ( 'NONE', ( #89 ), #220, .F. ) ;
#7 = CALENDAR_DATE ( 2017, 30, 10 ) ;
#8 = SECURITY_CLASSIFICATION_LEVEL ( 'unclassified' ) ;
#9 = CC_DESIGN_PERSON_AND_ORGANIZATION_ASSIGNMENT ( #19, #223, ( #102 ) ) ;
#10 = APPROVAL_STATUS ( 'not_yet_approved' ) ;
#11 = DIRECTION ( 'NONE',  ( 1.000000000000000000, 0.0000000000000000000, 0.0000000000000000000 ) ) ;
#12 = VECTOR ( 'NONE', #84, 1000.000000000000000 ) ;
#13 = ORIENTED_EDGE ( 'NONE', *, *, #81, .T. ) ;
#14 = SECURITY_CLASSIFICATION ( '', '', #8 ) ;
#15 = PERSON_AND_ORGANIZATION ( #55, #160 ) ;
#16 = APPROVAL_PERSON_ORGANIZATION ( #15, #235, #101 ) ;
#17 = PRODUCT ( 'Web Model 64402MX_43738', 'Web Model 64402MX_43738', '', ( #27 ) ) ;
#18 = DIRECTION ( 'NONE',  ( -1.000000000000000000, 0.0000000000000000000, 0.0000000000000000000 ) ) ;
#19 = PERSON_AND_ORGANIZATION ( #55, #160 ) ;
#20 = ORIENTED_EDGE ( 'NONE', *, *, #109, .F. ) ;
#21 = PERSON_AND_ORGANIZATION ( #55, #160 ) ;
#22 = PERSON_AND_ORGANIZATION_ROLE ( 'classification_officer' ) ;
#23 = PLANE ( 'NONE',  #42 ) ;
#24 = DIRECTION ( 'NONE',  ( -0.0000000000000000000, -0.0000000000000000000, -1.000000000000000000 ) ) ;
#25 = VECTOR ( 'NONE', #139, 1000.000000000000000 ) ;
#26 = LINE ( 'NONE', #95, #126 ) ;
#27 = MECHANICAL_CONTEXT ( 'NONE', #136, 'mechanical' ) ;
#28 = LINE ( 'NONE', #184, #166 ) ;
#29 = LINE ( 'NONE', #208, #12 ) ;
#30 = VECTOR ( 'NONE', #1, 1000.000000000000000 ) ;
#31 = LINE ( 'NONE', #218, #175 ) ;
#32 = EDGE_CURVE ( 'NONE', #76, #234, #178, .T. ) ;
#33 = ORIENTED_EDGE ( 'NONE', *, *, #163, .F. ) ;
#34 = DIRECTION ( 'NONE',  ( 0.0000000000000000000, 0.0000000000000000000, 1.000000000000000000 ) ) ;
#35 = CARTESIAN_POINT ( 'NONE',  ( 12.49999999999999800, -12.49999999999999600, -4.750000000000000000 ) ) ;
#36 = PRODUCT_DEFINITION ( 'UNKNOWN', '', #102, #236 ) ;
#37 = PLANE ( 'NONE',  #58 ) ;
#38 =( NAMED_UNIT ( * ) SI_UNIT ( $, .STERADIAN. ) SOLID_ANGLE_UNIT ( ) );
#39 = DIRECTION ( 'NONE',  ( 0.0000000000000000000, 0.0000000000000000000, -1.000000000000000000 ) ) ;
#40 = LINE ( 'NONE', #155, #25 ) ;
#41 = ADVANCED_FACE ( 'NONE', ( #162 ), #115, .T. ) ;
#42 = AXIS2_PLACEMENT_3D ( 'NONE', #177, #43, #39 ) ;
#43 = DIRECTION ( 'NONE',  ( 1.000000000000000000, 0.0000000000000000000, 0.0000000000000000000 ) ) ;
#44 = ADVANCED_FACE ( 'NONE', ( #80 ), #37, .F. ) ;
#45 = PLANE ( 'NONE',  #123 ) ;
#46 = LINE ( 'NONE', #117, #137 ) ;
#47 = ORIENTED_EDGE ( 'NONE', *, *, #198, .F. ) ;
#48 = DATE_TIME_ROLE ( 'classification_date' ) ;
#49 = DATE_AND_TIME ( #7, #125 ) ;
#50 = COORDINATED_UNIVERSAL_TIME_OFFSET ( 5, 0, .BEHIND. ) ;
#51 = ORIENTED_EDGE ( 'NONE', *, *, #163, .T. ) ;
#52 = VECTOR ( 'NONE', #227, 1000.000000000000000 ) ;
#53 = VERTEX_POINT ( 'NONE', #203 ) ;
#54 = AXIS2_PLACEMENT_3D ( 'NONE', #134, #158, #11 ) ;
#55 = PERSON ( 'UNSPECIFIED', 'UNSPECIFIED', 'UNSPECIFIED', ('UNSPECIFIED'), ('UNSPECIFIED'), ('UNSPECIFIED') ) ;
#56 = UNCERTAINTY_MEASURE_WITH_UNIT (LENGTH_MEASURE( 1.000000000000000100E-005 ), #65, 'distance_accuracy_value', 'NONE');
#57 = CALENDAR_DATE ( 2017, 30, 10 ) ;
#58 = AXIS2_PLACEMENT_3D ( 'NONE', #167, #18, #34 ) ;
#59 = EDGE_CURVE ( 'NONE', #180, #212, #226, .T. ) ;
#60 = ORIENTED_EDGE ( 'NONE', *, *, #70, .F. ) ;
#61 = DIRECTION ( 'NONE',  ( -0.0000000000000000000, -0.0000000000000000000, -1.000000000000000000 ) ) ;
#62 = DATE_TIME_ROLE ( 'creation_date' ) ;
#63 = APPROVAL_DATE_TIME ( #179, #235 ) ;
#64 = AXIS2_PLACEMENT_3D ( 'NONE', #100, #140, #157 ) ;
#65 =( LENGTH_UNIT ( ) NAMED_UNIT ( * ) SI_UNIT ( .MILLI., .METRE. ) );
#66 = DIRECTION ( 'NONE',  ( 1.000000000000000000, 1.387778780781445700E-016, 0.0000000000000000000 ) ) ;
#67 = LINE ( 'NONE', #88, #174 ) ;
#68 = VECTOR ( 'NONE', #2, 1000.000000000000000 ) ;
#69 = APPROVAL_ROLE ( '' ) ;
#70 = EDGE_CURVE ( 'NONE', #131, #76, #26, .T. ) ;
#71 = VECTOR ( 'NONE', #24, 1000.000000000000000 ) ;
#72 = CC_DESIGN_SECURITY_CLASSIFICATION ( #14, ( #102 ) ) ;
#73 = ORIENTED_EDGE ( 'NONE', *, *, #198, .T. ) ;
#74 = CC_DESIGN_PERSON_AND_ORGANIZATION_ASSIGNMENT ( #85, #170, ( #17 ) ) ;
#75 = DIRECTION ( 'NONE',  ( 0.0000000000000000000, 1.000000000000000000, 0.0000000000000000000 ) ) ;
#76 = VERTEX_POINT ( 'NONE', #168 ) ;
#77 = EDGE_CURVE ( 'NONE', #53, #180, #128, .T. ) ;
#78 = DATE_AND_TIME ( #232, #164 ) ;
#79 = CARTESIAN_POINT ( 'NONE',  ( 12.49999999999999800, -12.49999999999999600, 4.750000000000000000 ) ) ;
#80 = FACE_OUTER_BOUND ( 'NONE', #4, .T. ) ;
#81 = EDGE_CURVE ( 'NONE', #212, #87, #28, .T. ) ;
#82 = VECTOR ( 'NONE', #75, 1000.000000000000000 ) ;
#83 = APPLICATION_PROTOCOL_DEFINITION ( 'international standard', 'config_control_design', 1994, #192 ) ;
#84 = DIRECTION ( 'NONE',  ( -0.0000000000000000000, -0.0000000000000000000, -1.000000000000000000 ) ) ;
#85 = PERSON_AND_ORGANIZATION ( #55, #160 ) ;
#86 = EDGE_CURVE ( 'NONE', #180, #234, #31, .T. ) ;
#87 = VERTEX_POINT ( 'NONE', #217 ) ;
#88 = CARTESIAN_POINT ( 'NONE',  ( 12.49999999999999800, -12.49999999999999600, -4.750000000000000000 ) ) ;
#89 = FACE_OUTER_BOUND ( 'NONE', #99, .T. ) ;
#90 = APPROVAL_DATE_TIME ( #49, #159 ) ;
#91 = LOCAL_TIME ( 9, 10, 22.00000000000000000, #165 ) ;
#92 = ORIENTED_EDGE ( 'NONE', *, *, #77, .T. ) ;
#93 = ORIENTED_EDGE ( 'NONE', *, *, #70, .T. ) ;
#94 = ORIENTED_EDGE ( 'NONE', *, *, #109, .T. ) ;
#95 = CARTESIAN_POINT ( 'NONE',  ( -12.50000000000000200, -12.50000000000000000, -4.750000000000000000 ) ) ;
#96 = CC_DESIGN_DATE_AND_TIME_ASSIGNMENT ( #197, #48, ( #14 ) ) ;
#97 = DIRECTION ( 'NONE',  ( 0.0000000000000000000, -0.0000000000000000000, 1.000000000000000000 ) ) ;
#98 = AXIS2_PLACEMENT_3D ( 'NONE', #205, #127, #152 ) ;
#99 = EDGE_LOOP ( 'NONE', ( #60, #191, #33, #169 ) ) ;
#100 = CARTESIAN_POINT ( 'NONE',  ( 12.49999999999999800, -12.49999999999999600, 4.750000000000000000 ) ) ;
#101 = APPROVAL_ROLE ( '' ) ;
#102 = PRODUCT_DEFINITION_FORMATION_WITH_SPECIFIED_SOURCE ( 'ANY', '', #17, .NOT_KNOWN. ) ;
#103 = APPROVAL_PERSON_ORGANIZATION ( #146, #159, #69 ) ;
#104 = CARTESIAN_POINT ( 'NONE',  ( -12.50000000000000200, 12.50000000000000000, 4.750000000000000000 ) ) ;
#105 = LOCAL_TIME ( 9, 10, 22.00000000000000000, #190 ) ;
#106 = ORIENTED_EDGE ( 'NONE', *, *, #77, .F. ) ;
#107 = LOCAL_TIME ( 9, 10, 22.00000000000000000, #154 ) ;
#108 = PERSON_AND_ORGANIZATION ( #55, #160 ) ;
#109 = EDGE_CURVE ( 'NONE', #124, #53, #209, .T. ) ;
#110 = PERSON_AND_ORGANIZATION ( #55, #160 ) ;
#111 = CLOSED_SHELL ( 'NONE', ( #113, #207, #44, #148, #41, #6 ) ) ;
#112 = CARTESIAN_POINT ( 'NONE',  ( 12.49999999999999800, -12.49999999999999600, 4.750000000000000000 ) ) ;
#113 = ADVANCED_FACE ( 'NONE', ( #182 ), #23, .F. ) ;
#114 = CARTESIAN_POINT ( 'NONE',  ( -12.50000000000000200, -12.50000000000000000, 4.750000000000000000 ) ) ;
#115 = PLANE ( 'NONE',  #98 ) ;
#116 = MANIFOLD_SOLID_BREP ( 'Boss-Extrude1', #111 ) ;
#117 = CARTESIAN_POINT ( 'NONE',  ( 12.49999999999999800, 12.50000000000000400, 4.750000000000000000 ) ) ;
#118 = PERSON_AND_ORGANIZATION_ROLE ( 'design_supplier' ) ;
#119 = DIRECTION ( 'NONE',  ( 0.0000000000000000000, 1.000000000000000000, 0.0000000000000000000 ) ) ;
#120 = CALENDAR_DATE ( 2017, 30, 10 ) ;
#121 = ORIENTED_EDGE ( 'NONE', *, *, #86, .F. ) ;
#122 = APPLICATION_PROTOCOL_DEFINITION ( 'international standard', 'config_control_design', 1994, #136 ) ;
#123 = AXIS2_PLACEMENT_3D ( 'NONE', #189, #173, #66 ) ;
#124 = VERTEX_POINT ( 'NONE', #104 ) ;
#125 = LOCAL_TIME ( 9, 10, 22.00000000000000000, #50 ) ;
#126 = VECTOR ( 'NONE', #215, 1000.000000000000000 ) ;
#127 = DIRECTION ( 'NONE',  ( 0.0000000000000000000, -0.0000000000000000000, 1.000000000000000000 ) ) ;
#128 = LINE ( 'NONE', #79, #30 ) ;
#129 = CARTESIAN_POINT ( 'NONE',  ( 0.0000000000000000000, 0.0000000000000000000, -4.750000000000000000 ) ) ;
#130 = CC_DESIGN_APPROVAL ( #181, ( #36 ) ) ;
#131 = VERTEX_POINT ( 'NONE', #193 ) ;
#132 = PERSON_AND_ORGANIZATION_ROLE ( 'creator' ) ;
#133 = PRODUCT_DEFINITION_SHAPE ( 'NONE', 'NONE',  #36 ) ;
#134 = CARTESIAN_POINT ( 'NONE',  ( 0.0000000000000000000, 0.0000000000000000000, 0.0000000000000000000 ) ) ;
#135 = EDGE_CURVE ( 'NONE', #87, #131, #40, .T. ) ;
#136 = APPLICATION_CONTEXT ( 'configuration controlled 3d designs of mechanical parts and assemblies' ) ;
#137 = VECTOR ( 'NONE', #156, 1000.000000000000000 ) ;
#138 = EDGE_LOOP ( 'NONE', ( #183, #121, #106, #233 ) ) ;
#139 = DIRECTION ( 'NONE',  ( -1.000000000000000000, -1.387778780781445700E-016, 0.0000000000000000000 ) ) ;
#140 = DIRECTION ( 'NONE',  ( -1.387778780781445700E-016, 1.000000000000000000, 0.0000000000000000000 ) ) ;
#141 = ORIENTED_EDGE ( 'NONE', *, *, #81, .F. ) ;
#142 = ORIENTED_EDGE ( 'NONE', *, *, #86, .T. ) ;
#143 = CC_DESIGN_APPROVAL ( #235, ( #102 ) ) ;
#144 = CALENDAR_DATE ( 2017, 30, 10 ) ;
#145 = EDGE_LOOP ( 'NONE', ( #94, #92, #213, #73 ) ) ;
#146 = PERSON_AND_ORGANIZATION ( #55, #160 ) ;
#147 = CC_DESIGN_DATE_AND_TIME_ASSIGNMENT ( #78, #62, ( #36 ) ) ;
#148 = ADVANCED_FACE ( 'NONE', ( #225 ), #45, .F. ) ;
#149 = DIRECTION ( 'NONE',  ( 1.000000000000000000, 0.0000000000000000000, -0.0000000000000000000 ) ) ;
#150 = ORIENTED_EDGE ( 'NONE', *, *, #196, .F. ) ;
#151 = ADVANCED_BREP_SHAPE_REPRESENTATION ( 'Web Model 64402MX_43738', ( #116, #54 ), #187 ) ;
#152 = DIRECTION ( 'NONE',  ( 1.000000000000000000, 0.0000000000000000000, -0.0000000000000000000 ) ) ;
#153 = PLANE ( 'NONE',  #64 ) ;
#154 = COORDINATED_UNIVERSAL_TIME_OFFSET ( 5, 0, .BEHIND. ) ;
#155 = CARTESIAN_POINT ( 'NONE',  ( 12.49999999999999800, 12.50000000000000400, -4.750000000000000000 ) ) ;
#156 = DIRECTION ( 'NONE',  ( -1.000000000000000000, -1.387778780781445700E-016, 0.0000000000000000000 ) ) ;
#157 = DIRECTION ( 'NONE',  ( -1.000000000000000000, -1.387778780781445700E-016, 0.0000000000000000000 ) ) ;
#158 = DIRECTION ( 'NONE',  ( 0.0000000000000000000, 0.0000000000000000000, 1.000000000000000000 ) ) ;
#159 = APPROVAL ( #230, 'UNSPECIFIED' ) ;
#160 = ORGANIZATION ( 'UNSPECIFIED', 'UNSPECIFIED', '' ) ;
#161 = PRODUCT_RELATED_PRODUCT_CATEGORY ( 'detail', '', ( #17 ) ) ;
#162 = FACE_OUTER_BOUND ( 'NONE', #145, .T. ) ;
#163 = EDGE_CURVE ( 'NONE', #234, #87, #67, .T. ) ;
#164 = LOCAL_TIME ( 9, 10, 22.00000000000000000, #211 ) ;
#165 = COORDINATED_UNIVERSAL_TIME_OFFSET ( 5, 0, .BEHIND. ) ;
#166 = VECTOR ( 'NONE', #219, 1000.000000000000000 ) ;
#167 = CARTESIAN_POINT ( 'NONE',  ( 12.49999999999999800, -12.49999999999999600, 4.750000000000000000 ) ) ;
#168 = CARTESIAN_POINT ( 'NONE',  ( -12.50000000000000200, -12.50000000000000000, -4.750000000000000000 ) ) ;
#169 = ORIENTED_EDGE ( 'NONE', *, *, #32, .F. ) ;
#170 = PERSON_AND_ORGANIZATION_ROLE ( 'design_owner' ) ;
#171 = CARTESIAN_POINT ( 'NONE',  ( -12.50000000000000200, -12.50000000000000000, 4.750000000000000000 ) ) ;
#172 = EDGE_CURVE ( 'NONE', #124, #131, #29, .T. ) ;
#173 = DIRECTION ( 'NONE',  ( 1.387778780781445700E-016, -1.000000000000000000, 0.0000000000000000000 ) ) ;
#174 = VECTOR ( 'NONE', #119, 1000.000000000000000 ) ;
#175 = VECTOR ( 'NONE', #61, 1000.000000000000000 ) ;
#176 = CARTESIAN_POINT ( 'NONE',  ( 12.49999999999999800, -12.49999999999999600, -4.750000000000000000 ) ) ;
#177 = CARTESIAN_POINT ( 'NONE',  ( -12.50000000000000200, -12.50000000000000000, 4.750000000000000000 ) ) ;
#178 = LINE ( 'NONE', #35, #68 ) ;
#179 = DATE_AND_TIME ( #120, #91 ) ;
#180 = VERTEX_POINT ( 'NONE', #186 ) ;
#181 = APPROVAL ( #10, 'UNSPECIFIED' ) ;
#182 = FACE_OUTER_BOUND ( 'NONE', #221, .T. ) ;
#183 = ORIENTED_EDGE ( 'NONE', *, *, #32, .T. ) ;
#184 = CARTESIAN_POINT ( 'NONE',  ( 12.49999999999999800, 12.50000000000000400, 4.750000000000000000 ) ) ;
#185 = ORIENTED_EDGE ( 'NONE', *, *, #59, .F. ) ;
#186 = CARTESIAN_POINT ( 'NONE',  ( 12.49999999999999800, -12.49999999999999600, 4.750000000000000000 ) ) ;
#187 =( GEOMETRIC_REPRESENTATION_CONTEXT ( 3 ) GLOBAL_UNCERTAINTY_ASSIGNED_CONTEXT ( ( #56 ) ) GLOBAL_UNIT_ASSIGNED_CONTEXT ( ( #65, #224, #38 ) ) REPRESENTATION_CONTEXT ( 'NONE', 'WORKASPACE' ) );
#188 = APPROVAL_STATUS ( 'not_yet_approved' ) ;
#189 = CARTESIAN_POINT ( 'NONE',  ( 12.49999999999999800, 12.50000000000000400, 4.750000000000000000 ) ) ;
#190 = COORDINATED_UNIVERSAL_TIME_OFFSET ( 5, 0, .BEHIND. ) ;
#191 = ORIENTED_EDGE ( 'NONE', *, *, #135, .F. ) ;
#192 = APPLICATION_CONTEXT ( 'configuration controlled 3d designs of mechanical parts and assemblies' ) ;
#193 = CARTESIAN_POINT ( 'NONE',  ( -12.50000000000000200, 12.50000000000000000, -4.750000000000000000 ) ) ;
#194 = APPROVAL_DATE_TIME ( #202, #181 ) ;
#195 = ORIENTED_EDGE ( 'NONE', *, *, #172, .T. ) ;
#196 = EDGE_CURVE ( 'NONE', #53, #76, #3, .T. ) ;
#197 = DATE_AND_TIME ( #57, #107 ) ;
#198 = EDGE_CURVE ( 'NONE', #212, #124, #46, .T. ) ;
#199 = ORIENTED_EDGE ( 'NONE', *, *, #172, .F. ) ;
#200 = CC_DESIGN_PERSON_AND_ORGANIZATION_ASSIGNMENT ( #201, #22, ( #14 ) ) ;
#201 = PERSON_AND_ORGANIZATION ( #55, #160 ) ;
#202 = DATE_AND_TIME ( #144, #105 ) ;
#203 = CARTESIAN_POINT ( 'NONE',  ( -12.50000000000000200, -12.50000000000000000, 4.750000000000000000 ) ) ;
#204 = CC_DESIGN_APPROVAL ( #159, ( #14 ) ) ;
#205 = CARTESIAN_POINT ( 'NONE',  ( 0.0000000000000000000, 0.0000000000000000000, 4.750000000000000000 ) ) ;
#206 = SHAPE_DEFINITION_REPRESENTATION ( #133, #151 ) ;
#207 = ADVANCED_FACE ( 'NONE', ( #216 ), #153, .F. ) ;
#208 = CARTESIAN_POINT ( 'NONE',  ( -12.50000000000000200, 12.50000000000000000, 4.750000000000000000 ) ) ;
#209 = LINE ( 'NONE', #114, #52 ) ;
#210 = ORIENTED_EDGE ( 'NONE', *, *, #135, .T. ) ;
#211 = COORDINATED_UNIVERSAL_TIME_OFFSET ( 5, 0, .BEHIND. ) ;
#212 = VERTEX_POINT ( 'NONE', #228 ) ;
#213 = ORIENTED_EDGE ( 'NONE', *, *, #59, .T. ) ;
#214 = AXIS2_PLACEMENT_3D ( 'NONE', #129, #97, #149 ) ;
#215 = DIRECTION ( 'NONE',  ( -0.0000000000000000000, -1.000000000000000000, -0.0000000000000000000 ) ) ;
#216 = FACE_OUTER_BOUND ( 'NONE', #138, .T. ) ;
#217 = CARTESIAN_POINT ( 'NONE',  ( 12.49999999999999800, 12.50000000000000400, -4.750000000000000000 ) ) ;
#218 = CARTESIAN_POINT ( 'NONE',  ( 12.49999999999999800, -12.49999999999999600, 4.750000000000000000 ) ) ;
#219 = DIRECTION ( 'NONE',  ( -0.0000000000000000000, -0.0000000000000000000, -1.000000000000000000 ) ) ;
#220 = PLANE ( 'NONE',  #214 ) ;
#221 = EDGE_LOOP ( 'NONE', ( #93, #150, #20, #195 ) ) ;
#222 = APPROVAL_ROLE ( '' ) ;
#223 = PERSON_AND_ORGANIZATION_ROLE ( 'creator' ) ;
#224 =( NAMED_UNIT ( * ) PLANE_ANGLE_UNIT ( ) SI_UNIT ( $, .RADIAN. ) );
#225 = FACE_OUTER_BOUND ( 'NONE', #231, .T. ) ;
#226 = LINE ( 'NONE', #112, #82 ) ;
#227 = DIRECTION ( 'NONE',  ( -0.0000000000000000000, -1.000000000000000000, -0.0000000000000000000 ) ) ;
#228 = CARTESIAN_POINT ( 'NONE',  ( 12.49999999999999800, 12.50000000000000400, 4.750000000000000000 ) ) ;
#229 = CC_DESIGN_PERSON_AND_ORGANIZATION_ASSIGNMENT ( #110, #132, ( #36 ) ) ;
#230 = APPROVAL_STATUS ( 'not_yet_approved' ) ;
#231 = EDGE_LOOP ( 'NONE', ( #210, #199, #47, #13 ) ) ;
#232 = CALENDAR_DATE ( 2017, 30, 10 ) ;
#233 = ORIENTED_EDGE ( 'NONE', *, *, #196, .T. ) ;
#234 = VERTEX_POINT ( 'NONE', #176 ) ;
#235 = APPROVAL ( #188, 'UNSPECIFIED' ) ;
#236 = DESIGN_CONTEXT ( 'detailed design', #192, 'design' ) ;
#237 = APPROVAL_PERSON_ORGANIZATION ( #21, #181, #222 ) ;
ENDSEC;
END-ISO-10303-21;
