ISO-10303-21;
HEADER;
FILE_DESCRIPTION (( 'STEP AP203' ),
    '1' );
FILE_NAME ('Web Model 20464_20495.step',
    '2022-06-06T20:39:42',
    ( 'WC' ),
    ( 'Windows Central' ),
    'SwSTEP 2.0',
    'SolidWorks 2021',
    '' );
FILE_SCHEMA (( 'CONFIG_CONTROL_DESIGN' ));
ENDSEC;

DATA;
#1 = DATE_AND_TIME ( #126, #9 ) ;
#2 = ORIENTED_EDGE ( 'NONE', *, *, #113, .T. ) ;
#3 = ORIENTED_EDGE ( 'NONE', *, *, #49, .F. ) ;
#4 = DIRECTION ( 'NONE',  ( -0.000000000000000000, -0.000000000000000000, -1.000000000000000000 ) ) ;
#5 = APPROVAL_PERSON_ORGANIZATION ( #112, #11, #26 ) ;
#6 = CALENDAR_DATE ( 2022, 6, 6 ) ;
#7 = FACE_OUTER_BOUND ( 'NONE', #82, .T. ) ;
#8 = CIRCLE ( 'NONE', #21, 6.250000000000000000 ) ;
#9 = LOCAL_TIME ( 16, 39, 42.00000000000000000, #147 ) ;
#10 = AXIS2_PLACEMENT_3D ( 'NONE', #144, #40, #42 ) ;
#11 = APPROVAL ( #135, 'UNSPECIFIED' ) ;
#12 = ADVANCED_FACE ( 'NONE', ( #171 ), #175, .F. ) ;
#13 = DIRECTION ( 'NONE',  ( 1.000000000000000000, 0.000000000000000000, 0.000000000000000000 ) ) ;
#14 = CALENDAR_DATE ( 2022, 6, 6 ) ;
#15 = LINE ( 'NONE', #38, #108 ) ;
#16 = AXIS2_PLACEMENT_3D ( 'NONE', #152, #74, #20 ) ;
#17 = DIRECTION ( 'NONE',  ( 1.000000000000000000, 0.000000000000000000, -0.000000000000000000 ) ) ;
#18 = CC_DESIGN_PERSON_AND_ORGANIZATION_ASSIGNMENT ( #71, #55, ( #131 ) ) ;
#19 = CYLINDRICAL_SURFACE ( 'NONE', #101, 6.250000000000000000 ) ;
#20 = DIRECTION ( 'NONE',  ( 1.000000000000000000, 0.000000000000000000, 0.000000000000000000 ) ) ;
#21 = AXIS2_PLACEMENT_3D ( 'NONE', #166, #128, #89 ) ;
#22 = DIRECTION ( 'NONE',  ( 0.000000000000000000, 0.000000000000000000, 1.000000000000000000 ) ) ;
#23 = DIRECTION ( 'NONE',  ( -1.000000000000000000, 0.000000000000000000, 0.000000000000000000 ) ) ;
#24 = DESIGN_CONTEXT ( 'detailed design', #75, 'design' ) ;
#25 = PLANE ( 'NONE',  #78 ) ;
#26 = APPROVAL_ROLE ( '' ) ;
#27 = ORIENTED_EDGE ( 'NONE', *, *, #36, .T. ) ;
#28 = SECURITY_CLASSIFICATION_LEVEL ( 'unclassified' ) ;
#29 = VERTEX_POINT ( 'NONE', #44 ) ;
#30 = PRODUCT_RELATED_PRODUCT_CATEGORY ( 'detail', '', ( #45 ) ) ;
#31 = LOCAL_TIME ( 16, 39, 42.00000000000000000, #43 ) ;
#32 = APPLICATION_PROTOCOL_DEFINITION ( 'international standard', 'config_control_design', 1994, #132 ) ;
#33 = DIRECTION ( 'NONE',  ( -1.000000000000000000, 0.000000000000000000, 0.000000000000000000 ) ) ;
#34 = PERSON_AND_ORGANIZATION_ROLE ( 'creator' ) ;
#35 = AXIS2_PLACEMENT_3D ( 'NONE', #140, #22, #47 ) ;
#36 = EDGE_CURVE ( 'NONE', #29, #127, #15, .T. ) ;
#37 = COORDINATED_UNIVERSAL_TIME_OFFSET ( 5, 0, .BEHIND. ) ;
#38 = CARTESIAN_POINT ( 'NONE',  ( -6.250000000000000000, 0.000000000000000000, 2.000000000000000000 ) ) ;
#39 = APPROVAL_DATE_TIME ( #1, #11 ) ;
#40 = DIRECTION ( 'NONE',  ( 0.000000000000000000, 0.000000000000000000, 1.000000000000000000 ) ) ;
#41 = CC_DESIGN_APPROVAL ( #88, ( #131 ) ) ;
#42 = DIRECTION ( 'NONE',  ( 1.000000000000000000, 0.000000000000000000, 0.000000000000000000 ) ) ;
#43 = COORDINATED_UNIVERSAL_TIME_OFFSET ( 5, 0, .BEHIND. ) ;
#44 = CARTESIAN_POINT ( 'NONE',  ( -6.250000000000000000, 0.000000000000000000, 2.000000000000000000 ) ) ;
#45 = PRODUCT ( 'Web Model 20464_20495', 'Web Model 20464_20495', '', ( #167 ) ) ;
#46 = ADVANCED_FACE ( 'NONE', ( #149 ), #25, .T. ) ;
#47 = DIRECTION ( 'NONE',  ( 1.000000000000000000, 0.000000000000000000, 0.000000000000000000 ) ) ;
#48 = APPROVAL_ROLE ( '' ) ;
#49 = EDGE_CURVE ( 'NONE', #111, #29, #151, .T. ) ;
#50 = MANIFOLD_SOLID_BREP ( 'Boss-Extrude1', #154 ) ;
#51 = PERSON_AND_ORGANIZATION ( #91, #98 ) ;
#52 = CC_DESIGN_DATE_AND_TIME_ASSIGNMENT ( #174, #84, ( #131 ) ) ;
#53 = CC_DESIGN_SECURITY_CLASSIFICATION ( #131, ( #117 ) ) ;
#54 = CARTESIAN_POINT ( 'NONE',  ( 0.000000000000000000, 0.000000000000000000, 0.000000000000000000 ) ) ;
#55 = PERSON_AND_ORGANIZATION_ROLE ( 'classification_officer' ) ;
#56 = CARTESIAN_POINT ( 'NONE',  ( -6.250000000000000000, 0.000000000000000000, 0.000000000000000000 ) ) ;
#57 = PERSON_AND_ORGANIZATION ( #91, #98 ) ;
#58 = ORIENTED_EDGE ( 'NONE', *, *, #143, .F. ) ;
#59 = PERSON_AND_ORGANIZATION_ROLE ( 'design_supplier' ) ;
#60 = DIRECTION ( 'NONE',  ( -0.000000000000000000, -0.000000000000000000, -1.000000000000000000 ) ) ;
#61 = PERSON_AND_ORGANIZATION_ROLE ( 'creator' ) ;
#62 = ORIENTED_EDGE ( 'NONE', *, *, #36, .F. ) ;
#63 = CALENDAR_DATE ( 2022, 6, 6 ) ;
#64 =( NAMED_UNIT ( * ) SI_UNIT ( $, .STERADIAN. ) SOLID_ANGLE_UNIT ( ) );
#65 = APPROVAL_DATE_TIME ( #129, #120 ) ;
#66 = AXIS2_PLACEMENT_3D ( 'NONE', #133, #125, #13 ) ;
#67 = APPROVAL_PERSON_ORGANIZATION ( #104, #88, #134 ) ;
#68 = LINE ( 'NONE', #123, #157 ) ;
#69 = CARTESIAN_POINT ( 'NONE',  ( 6.250000000000000000, 7.654042494670957606E-16, 0.000000000000000000 ) ) ;
#70 = ORIENTED_EDGE ( 'NONE', *, *, #142, .T. ) ;
#71 = PERSON_AND_ORGANIZATION ( #91, #98 ) ;
#72 =( NAMED_UNIT ( * ) PLANE_ANGLE_UNIT ( ) SI_UNIT ( $, .RADIAN. ) );
#73 = AXIS2_PLACEMENT_3D ( 'NONE', #95, #146, #23 ) ;
#74 = DIRECTION ( 'NONE',  ( 0.000000000000000000, 0.000000000000000000, 1.000000000000000000 ) ) ;
#75 = APPLICATION_CONTEXT ( 'configuration controlled 3d designs of mechanical parts and assemblies' ) ;
#76 = ADVANCED_BREP_SHAPE_REPRESENTATION ( 'Web Model 20464_20495', ( #50, #16 ), #155 ) ;
#77 = CC_DESIGN_DATE_AND_TIME_ASSIGNMENT ( #172, #106, ( #150 ) ) ;
#78 = AXIS2_PLACEMENT_3D ( 'NONE', #80, #137, #17 ) ;
#79 = CC_DESIGN_PERSON_AND_ORGANIZATION_ASSIGNMENT ( #122, #59, ( #117 ) ) ;
#80 = CARTESIAN_POINT ( 'NONE',  ( 0.000000000000000000, 0.000000000000000000, 2.000000000000000000 ) ) ;
#81 = CALENDAR_DATE ( 2022, 6, 6 ) ;
#82 = EDGE_LOOP ( 'NONE', ( #3, #97, #70, #62 ) ) ;
#83 = ORIENTED_EDGE ( 'NONE', *, *, #142, .F. ) ;
#84 = DATE_TIME_ROLE ( 'classification_date' ) ;
#85 = ORIENTED_EDGE ( 'NONE', *, *, #49, .T. ) ;
#86 = CC_DESIGN_APPROVAL ( #120, ( #150 ) ) ;
#87 = COORDINATED_UNIVERSAL_TIME_OFFSET ( 5, 0, .BEHIND. ) ;
#88 = APPROVAL ( #165, 'UNSPECIFIED' ) ;
#89 = DIRECTION ( 'NONE',  ( 1.000000000000000000, 0.000000000000000000, 0.000000000000000000 ) ) ;
#90 = CC_DESIGN_PERSON_AND_ORGANIZATION_ASSIGNMENT ( #114, #34, ( #150 ) ) ;
#91 = PERSON ( 'UNSPECIFIED', 'UNSPECIFIED', 'UNSPECIFIED', ('UNSPECIFIED'), ('UNSPECIFIED'), ('UNSPECIFIED') ) ;
#92 = CC_DESIGN_APPROVAL ( #11, ( #117 ) ) ;
#93 = VERTEX_POINT ( 'NONE', #69 ) ;
#94 = SHAPE_DEFINITION_REPRESENTATION ( #153, #76 ) ;
#95 = CARTESIAN_POINT ( 'NONE',  ( 0.000000000000000000, 0.000000000000000000, 2.000000000000000000 ) ) ;
#96 = EDGE_LOOP ( 'NONE', ( #103, #85 ) ) ;
#97 = ORIENTED_EDGE ( 'NONE', *, *, #121, .T. ) ;
#98 = ORGANIZATION ( 'UNSPECIFIED', 'UNSPECIFIED', '' ) ;
#99 =( LENGTH_UNIT ( ) NAMED_UNIT ( * ) SI_UNIT ( .MILLI., .METRE. ) );
#100 = PERSON_AND_ORGANIZATION_ROLE ( 'design_owner' ) ;
#101 = AXIS2_PLACEMENT_3D ( 'NONE', #141, #4, #33 ) ;
#102 = LOCAL_TIME ( 16, 39, 42.00000000000000000, #162 ) ;
#103 = ORIENTED_EDGE ( 'NONE', *, *, #143, .T. ) ;
#104 = PERSON_AND_ORGANIZATION ( #91, #98 ) ;
#105 = FACE_OUTER_BOUND ( 'NONE', #164, .T. ) ;
#106 = DATE_TIME_ROLE ( 'creation_date' ) ;
#107 = DIRECTION ( 'NONE',  ( 1.000000000000000000, 0.000000000000000000, -0.000000000000000000 ) ) ;
#108 = VECTOR ( 'NONE', #60, 1000.000000000000000 ) ;
#109 = CARTESIAN_POINT ( 'NONE',  ( 6.250000000000000000, 7.654042494670957606E-16, 2.000000000000000000 ) ) ;
#110 = CC_DESIGN_PERSON_AND_ORGANIZATION_ASSIGNMENT ( #57, #61, ( #117 ) ) ;
#111 = VERTEX_POINT ( 'NONE', #109 ) ;
#112 = PERSON_AND_ORGANIZATION ( #91, #98 ) ;
#113 = EDGE_CURVE ( 'NONE', #127, #93, #169, .T. ) ;
#114 = PERSON_AND_ORGANIZATION ( #91, #98 ) ;
#115 = PERSON_AND_ORGANIZATION ( #91, #98 ) ;
#116 = CC_DESIGN_PERSON_AND_ORGANIZATION_ASSIGNMENT ( #51, #100, ( #45 ) ) ;
#117 = PRODUCT_DEFINITION_FORMATION_WITH_SPECIFIED_SOURCE ( 'ANY', '', #45, .NOT_KNOWN. ) ;
#118 = CIRCLE ( 'NONE', #35, 6.250000000000000000 ) ;
#119 = APPROVAL_PERSON_ORGANIZATION ( #115, #120, #48 ) ;
#120 = APPROVAL ( #168, 'UNSPECIFIED' ) ;
#121 = EDGE_CURVE ( 'NONE', #111, #93, #68, .T. ) ;
#122 = PERSON_AND_ORGANIZATION ( #91, #98 ) ;
#123 = CARTESIAN_POINT ( 'NONE',  ( 6.250000000000000000, 7.654042494670957606E-16, 2.000000000000000000 ) ) ;
#124 = ORIENTED_EDGE ( 'NONE', *, *, #113, .F. ) ;
#125 = DIRECTION ( 'NONE',  ( 0.000000000000000000, 0.000000000000000000, 1.000000000000000000 ) ) ;
#126 = CALENDAR_DATE ( 2022, 6, 6 ) ;
#127 = VERTEX_POINT ( 'NONE', #56 ) ;
#128 = DIRECTION ( 'NONE',  ( 0.000000000000000000, 0.000000000000000000, 1.000000000000000000 ) ) ;
#129 = DATE_AND_TIME ( #6, #170 ) ;
#130 = ADVANCED_FACE ( 'NONE', ( #105 ), #159, .T. ) ;
#131 = SECURITY_CLASSIFICATION ( '', '', #28 ) ;
#132 = APPLICATION_CONTEXT ( 'configuration controlled 3d designs of mechanical parts and assemblies' ) ;
#133 = CARTESIAN_POINT ( 'NONE',  ( 0.000000000000000000, 0.000000000000000000, 0.000000000000000000 ) ) ;
#134 = APPROVAL_ROLE ( '' ) ;
#135 = APPROVAL_STATUS ( 'not_yet_approved' ) ;
#136 = APPROVAL_DATE_TIME ( #161, #88 ) ;
#137 = DIRECTION ( 'NONE',  ( 0.000000000000000000, 0.000000000000000000, 1.000000000000000000 ) ) ;
#138 = APPLICATION_PROTOCOL_DEFINITION ( 'international standard', 'config_control_design', 1994, #75 ) ;
#139 = LOCAL_TIME ( 16, 39, 42.00000000000000000, #87 ) ;
#140 = CARTESIAN_POINT ( 'NONE',  ( 0.000000000000000000, 0.000000000000000000, 2.000000000000000000 ) ) ;
#141 = CARTESIAN_POINT ( 'NONE',  ( 0.000000000000000000, 0.000000000000000000, 2.000000000000000000 ) ) ;
#142 = EDGE_CURVE ( 'NONE', #93, #127, #8, .T. ) ;
#143 = EDGE_CURVE ( 'NONE', #29, #111, #118, .T. ) ;
#144 = CARTESIAN_POINT ( 'NONE',  ( 0.000000000000000000, 0.000000000000000000, 2.000000000000000000 ) ) ;
#145 = UNCERTAINTY_MEASURE_WITH_UNIT (LENGTH_MEASURE( 1.000000000000000082E-05 ), #99, 'distance_accuracy_value', 'NONE');
#146 = DIRECTION ( 'NONE',  ( -0.000000000000000000, -0.000000000000000000, -1.000000000000000000 ) ) ;
#147 = COORDINATED_UNIVERSAL_TIME_OFFSET ( 5, 0, .BEHIND. ) ;
#148 = ORIENTED_EDGE ( 'NONE', *, *, #121, .F. ) ;
#149 = FACE_OUTER_BOUND ( 'NONE', #96, .T. ) ;
#150 = PRODUCT_DEFINITION ( 'UNKNOWN', '', #117, #24 ) ;
#151 = CIRCLE ( 'NONE', #10, 6.250000000000000000 ) ;
#152 = CARTESIAN_POINT ( 'NONE',  ( 0.000000000000000000, 0.000000000000000000, 0.000000000000000000 ) ) ;
#153 = PRODUCT_DEFINITION_SHAPE ( 'NONE', 'NONE',  #150 ) ;
#154 = CLOSED_SHELL ( 'NONE', ( #156, #130, #46, #12 ) ) ;
#155 =( GEOMETRIC_REPRESENTATION_CONTEXT ( 3 ) GLOBAL_UNCERTAINTY_ASSIGNED_CONTEXT ( ( #145 ) ) GLOBAL_UNIT_ASSIGNED_CONTEXT ( ( #99, #72, #64 ) ) REPRESENTATION_CONTEXT ( 'NONE', 'WORKASPACE' ) );
#156 = ADVANCED_FACE ( 'NONE', ( #7 ), #19, .T. ) ;
#157 = VECTOR ( 'NONE', #173, 1000.000000000000000 ) ;
#158 = DIRECTION ( 'NONE',  ( 0.000000000000000000, 0.000000000000000000, 1.000000000000000000 ) ) ;
#159 = CYLINDRICAL_SURFACE ( 'NONE', #73, 6.250000000000000000 ) ;
#160 = AXIS2_PLACEMENT_3D ( 'NONE', #54, #158, #107 ) ;
#161 = DATE_AND_TIME ( #14, #31 ) ;
#162 = COORDINATED_UNIVERSAL_TIME_OFFSET ( 5, 0, .BEHIND. ) ;
#163 = EDGE_LOOP ( 'NONE', ( #124, #83 ) ) ;
#164 = EDGE_LOOP ( 'NONE', ( #148, #58, #27, #2 ) ) ;
#165 = APPROVAL_STATUS ( 'not_yet_approved' ) ;
#166 = CARTESIAN_POINT ( 'NONE',  ( 0.000000000000000000, 0.000000000000000000, 0.000000000000000000 ) ) ;
#167 = MECHANICAL_CONTEXT ( 'NONE', #132, 'mechanical' ) ;
#168 = APPROVAL_STATUS ( 'not_yet_approved' ) ;
#169 = CIRCLE ( 'NONE', #66, 6.250000000000000000 ) ;
#170 = LOCAL_TIME ( 16, 39, 42.00000000000000000, #37 ) ;
#171 = FACE_OUTER_BOUND ( 'NONE', #163, .T. ) ;
#172 = DATE_AND_TIME ( #63, #139 ) ;
#173 = DIRECTION ( 'NONE',  ( -0.000000000000000000, -0.000000000000000000, -1.000000000000000000 ) ) ;
#174 = DATE_AND_TIME ( #81, #102 ) ;
#175 = PLANE ( 'NONE',  #160 ) ;
ENDSEC;
END-ISO-10303-21;
