ISO-10303-21;
HEADER;
FILE_DESCRIPTION (( 'STEP AP203' ),
    '1' );
FILE_NAME ('4292-E0W.STEP',
    '2015-05-29T14:23:39',
    ( 'admin' ),
    ( '' ),
    'SwSTEP 2.0',
    'SolidWorks 2014',
    '' );
FILE_SCHEMA (( 'CONFIG_CONTROL_DESIGN' ));
ENDSEC;

DATA;
#1 = CARTESIAN_POINT ( 'NONE',  ( -9.900000000000000400, 3.095294784844933800E-015, 25.14999999999997400 ) ) ;
#2 = DIRECTION ( 'NONE',  ( 0.0000000000000000000, 0.0000000000000000000, 1.000000000000000000 ) ) ;
#3 = CC_DESIGN_APPROVAL ( #216, ( #258 ) ) ;
#4 = EDGE_LOOP ( 'NONE', ( #277, #184, #13, #289 ) ) ;
#5 = DIRECTION ( 'NONE',  ( 1.000000000000000000, 0.0000000000000000000, 0.0000000000000000000 ) ) ;
#6 = EDGE_CURVE ( 'NONE', #130, #178, #256, .T. ) ;
#7 = DIRECTION ( 'NONE',  ( -0.0000000000000000000, 1.000000000000000000, 1.224646799147353200E-016 ) ) ;
#8 = FACE_OUTER_BOUND ( 'NONE', #149, .T. ) ;
#9 = DIRECTION ( 'NONE',  ( -1.000000000000000000, -0.0000000000000000000, -0.0000000000000000000 ) ) ;
#10 = CARTESIAN_POINT ( 'NONE',  ( -9.900000000000000400, 0.0000000000000000000, 0.0000000000000000000 ) ) ;
#11 = AXIS2_PLACEMENT_3D ( 'NONE', #168, #9, #242 ) ;
#12 = VERTEX_POINT ( 'NONE', #285 ) ;
#13 = ORIENTED_EDGE ( 'NONE', *, *, #142, .F. ) ;
#14 = AXIS2_PLACEMENT_3D ( 'NONE', #100, #152, #185 ) ;
#15 = FACE_OUTER_BOUND ( 'NONE', #128, .T. ) ;
#16 = CARTESIAN_POINT ( 'NONE',  ( -9.900000000000000400, 0.0000000000000000000, 0.0000000000000000000 ) ) ;
#17 = ORIENTED_EDGE ( 'NONE', *, *, #237, .F. ) ;
#18 = AXIS2_PLACEMENT_3D ( 'NONE', #244, #42, #70 ) ;
#19 = DIRECTION ( 'NONE',  ( 0.0000000000000000000, 0.0000000000000000000, -1.000000000000000000 ) ) ;
#20 = ORIENTED_EDGE ( 'NONE', *, *, #299, .F. ) ;
#21 = AXIS2_PLACEMENT_3D ( 'NONE', #288, #297, #147 ) ;
#22 = DIRECTION ( 'NONE',  ( -1.000000000000000000, -0.0000000000000000000, -0.0000000000000000000 ) ) ;
#23 = ADVANCED_FACE ( 'NONE', ( #15 ), #202, .T. ) ;
#24 = DIRECTION ( 'NONE',  ( 0.0000000000000000000, -1.000000000000000000, 0.0000000000000000000 ) ) ;
#25 = EDGE_LOOP ( 'NONE', ( #41, #81, #246, #162 ) ) ;
#26 = DIRECTION ( 'NONE',  ( 0.0000000000000000000, 0.0000000000000000000, 1.000000000000000000 ) ) ;
#27 = FACE_OUTER_BOUND ( 'NONE', #4, .T. ) ;
#28 = APPROVAL_STATUS ( 'not_yet_approved' ) ;
#29 = CC_DESIGN_PERSON_AND_ORGANIZATION_ASSIGNMENT ( #219, #85, ( #136 ) ) ;
#30 = LINE ( 'NONE', #80, #172 ) ;
#31 = APPLICATION_CONTEXT ( 'configuration controlled 3d designs of mechanical parts and assemblies' ) ;
#32 = COORDINATED_UNIVERSAL_TIME_OFFSET ( 5, 0, .BEHIND. ) ;
#33 = PRODUCT_DEFINITION ( 'UNKNOWN', '', #136, #259 ) ;
#34 = PERSON_AND_ORGANIZATION_ROLE ( 'creator' ) ;
#35 = DIRECTION ( 'NONE',  ( 0.0000000000000000000, 0.0000000000000000000, 1.000000000000000000 ) ) ;
#36 = ORIENTED_EDGE ( 'NONE', *, *, #220, .T. ) ;
#37 = ADVANCED_FACE ( 'NONE', ( #221 ), #97, .T. ) ;
#38 = CARTESIAN_POINT ( 'NONE',  ( -7.150000000000002100, 0.0000000000000000000, 25.39999999999999900 ) ) ;
#39 = CARTESIAN_POINT ( 'NONE',  ( -6.675257021947969900, 0.0000000000000000000, 0.0000000000000000000 ) ) ;
#40 = DIRECTION ( 'NONE',  ( 0.0000000000000000000, 0.0000000000000000000, 1.000000000000000000 ) ) ;
#41 = ORIENTED_EDGE ( 'NONE', *, *, #6, .T. ) ;
#42 = DIRECTION ( 'NONE',  ( 1.000000000000000000, 0.0000000000000000000, 0.0000000000000000000 ) ) ;
#43 = FACE_OUTER_BOUND ( 'NONE', #68, .T. ) ;
#44 = APPROVAL_STATUS ( 'not_yet_approved' ) ;
#45 = CONICAL_SURFACE ( 'NONE', #21, 25.39999999999999900, 0.2010242663278876400 ) ;
#46 = ORIENTED_EDGE ( 'NONE', *, *, #54, .T. ) ;
#47 = VERTEX_POINT ( 'NONE', #1 ) ;
#48 = CARTESIAN_POINT ( 'NONE',  ( -9.900000000000000400, 0.0000000000000000000, 0.0000000000000000000 ) ) ;
#49 = DIRECTION ( 'NONE',  ( 0.0000000000000000000, 0.0000000000000000000, -1.000000000000000000 ) ) ;
#50 = PRODUCT_RELATED_PRODUCT_CATEGORY ( 'detail', '', ( #196 ) ) ;
#51 = EDGE_CURVE ( 'NONE', #130, #101, #265, .T. ) ;
#52 = DIRECTION ( 'NONE',  ( -1.000000000000000000, -0.0000000000000000000, -0.0000000000000000000 ) ) ;
#53 = CARTESIAN_POINT ( 'NONE',  ( -9.900000000000000400, 0.0000000000000000000, 0.0000000000000000000 ) ) ;
#54 = EDGE_CURVE ( 'NONE', #101, #122, #75, .T. ) ;
#55 = CARTESIAN_POINT ( 'NONE',  ( -9.900000000000000400, 0.0000000000000000000, 0.0000000000000000000 ) ) ;
#56 = PERSON_AND_ORGANIZATION ( #204, #63 ) ;
#57 = AXIS2_PLACEMENT_3D ( 'NONE', #48, #240, #133 ) ;
#58 = DIRECTION ( 'NONE',  ( 0.0000000000000000000, 0.0000000000000000000, 1.000000000000000000 ) ) ;
#59 = ORIENTED_EDGE ( 'NONE', *, *, #54, .F. ) ;
#60 = LOCAL_TIME ( 10, 23, 39.00000000000000000, #143 ) ;
#61 = CARTESIAN_POINT ( 'NONE',  ( -9.649999999999970200, 3.110602869834276900E-015, -25.39999999999999900 ) ) ;
#62 = EDGE_CURVE ( 'NONE', #139, #12, #170, .T. ) ;
#63 = ORGANIZATION ( 'UNSPECIFIED', 'UNSPECIFIED', '' ) ;
#64 = PERSON_AND_ORGANIZATION_ROLE ( 'design_supplier' ) ;
#65 = CC_DESIGN_PERSON_AND_ORGANIZATION_ASSIGNMENT ( #84, #249, ( #258 ) ) ;
#66 = VECTOR ( 'NONE', #236, 1000.000000000000100 ) ;
#67 = EDGE_CURVE ( 'NONE', #47, #101, #226, .T. ) ;
#68 = EDGE_LOOP ( 'NONE', ( #83, #93 ) ) ;
#69 = EDGE_CURVE ( 'NONE', #88, #122, #30, .T. ) ;
#70 = DIRECTION ( 'NONE',  ( 0.0000000000000000000, 0.0000000000000000000, -1.000000000000000000 ) ) ;
#71 = CARTESIAN_POINT ( 'NONE',  ( -7.150000000000002100, 0.0000000000000000000, 0.0000000000000000000 ) ) ;
#72 = ORIENTED_EDGE ( 'NONE', *, *, #69, .T. ) ;
#73 = EDGE_CURVE ( 'NONE', #177, #12, #222, .T. ) ;
#74 = DIRECTION ( 'NONE',  ( 1.000000000000000000, 0.0000000000000000000, 0.0000000000000000000 ) ) ;
#75 = CIRCLE ( 'NONE', #18, 25.39999999999999900 ) ;
#76 = CC_DESIGN_APPROVAL ( #274, ( #33 ) ) ;
#77 = ORIENTED_EDGE ( 'NONE', *, *, #234, .F. ) ;
#78 = CARTESIAN_POINT ( 'NONE',  ( -17.69999998876788500, 0.0000000000000000000, 0.0007874090039144271400 ) ) ;
#79 = CARTESIAN_POINT ( 'NONE',  ( -6.675257021947969900, 0.0000000000000000000, 0.0000000000000000000 ) ) ;
#80 = CARTESIAN_POINT ( 'NONE',  ( -9.900000000000000400, 0.0000000000000000000, -25.14999999999997400 ) ) ;
#81 = ORIENTED_EDGE ( 'NONE', *, *, #237, .T. ) ;
#82 = PERSON_AND_ORGANIZATION_ROLE ( 'design_owner' ) ;
#83 = ORIENTED_EDGE ( 'NONE', *, *, #141, .T. ) ;
#84 = PERSON_AND_ORGANIZATION ( #204, #63 ) ;
#85 = PERSON_AND_ORGANIZATION_ROLE ( 'creator' ) ;
#86 = LINE ( 'NONE', #38, #217 ) ;
#87 = AXIS2_PLACEMENT_3D ( 'NONE', #257, #7, #124 ) ;
#88 = VERTEX_POINT ( 'NONE', #94 ) ;
#89 = FACE_OUTER_BOUND ( 'NONE', #228, .T. ) ;
#90 = UNCERTAINTY_MEASURE_WITH_UNIT (LENGTH_MEASURE( 1.000000000000000100E-005 ), #281, 'distance_accuracy_value', 'NONE');
#91 = ADVANCED_FACE ( 'NONE', ( #261 ), #227, .T. ) ;
#92 = DIRECTION ( 'NONE',  ( 0.7071067811865574500, 0.0000000000000000000, -0.7071067811865376900 ) ) ;
#93 = ORIENTED_EDGE ( 'NONE', *, *, #223, .T. ) ;
#94 = CARTESIAN_POINT ( 'NONE',  ( -9.900000000000000400, 0.0000000000000000000, -25.14999999999997400 ) ) ;
#95 = ORIENTED_EDGE ( 'NONE', *, *, #62, .T. ) ;
#96 = DIRECTION ( 'NONE',  ( -1.000000000000000000, -0.0000000000000000000, -0.0000000000000000000 ) ) ;
#97 = CYLINDRICAL_SURFACE ( 'NONE', #225, 25.39999999999999900 ) ;
#98 = ADVANCED_FACE ( 'NONE', ( #27 ), #160, .T. ) ;
#99 = SHAPE_DEFINITION_REPRESENTATION ( #293, #291 ) ;
#100 = CARTESIAN_POINT ( 'NONE',  ( -9.900000000000000400, 0.0000000000000000000, 0.0000000000000000000 ) ) ;
#101 = VERTEX_POINT ( 'NONE', #203 ) ;
#102 = ORIENTED_EDGE ( 'NONE', *, *, #211, .F. ) ;
#103 = AXIS2_PLACEMENT_3D ( 'NONE', #55, #165, #2 ) ;
#104 = PERSON_AND_ORGANIZATION ( #204, #63 ) ;
#105 = CALENDAR_DATE ( 2015, 29, 5 ) ;
#106 = ORIENTED_EDGE ( 'NONE', *, *, #234, .T. ) ;
#107 = AXIS2_PLACEMENT_3D ( 'NONE', #191, #173, #49 ) ;
#108 = DATE_AND_TIME ( #121, #205 ) ;
#109 = LOCAL_TIME ( 10, 23, 39.00000000000000000, #182 ) ;
#110 = CC_DESIGN_DATE_AND_TIME_ASSIGNMENT ( #108, #267, ( #33 ) ) ;
#111 = PERSON_AND_ORGANIZATION ( #204, #63 ) ;
#112 = APPLICATION_PROTOCOL_DEFINITION ( 'international standard', 'config_control_design', 1994, #31 ) ;
#113 = ORIENTED_EDGE ( 'NONE', *, *, #211, .T. ) ;
#114 = TOROIDAL_SURFACE ( 'NONE', #192, 0.0007874090039144271400, 27.60000000000000500 ) ;
#115 = ADVANCED_FACE ( 'NONE', ( #250 ), #45, .T. ) ;
#116 = ORIENTED_EDGE ( 'NONE', *, *, #73, .T. ) ;
#117 = DIRECTION ( 'NONE',  ( 1.000000000000000000, 0.0000000000000000000, 0.0000000000000000000 ) ) ;
#118 = ADVANCED_FACE ( 'NONE', ( #43 ), #156, .F. ) ;
#119 = APPROVAL_ROLE ( '' ) ;
#120 = DIRECTION ( 'NONE',  ( -1.000000000000000000, -0.0000000000000000000, -0.0000000000000000000 ) ) ;
#121 = CALENDAR_DATE ( 2015, 29, 5 ) ;
#122 = VERTEX_POINT ( 'NONE', #61 ) ;
#123 = DIRECTION ( 'NONE',  ( -1.000000000000000000, -0.0000000000000000000, -0.0000000000000000000 ) ) ;
#124 = DIRECTION ( 'NONE',  ( 0.0000000000000000000, -1.224646799147353200E-016, 1.000000000000000000 ) ) ;
#125 = APPROVAL_PERSON_ORGANIZATION ( #273, #216, #119 ) ;
#126 = CARTESIAN_POINT ( 'NONE',  ( -9.900000000000000400, 3.079986699855590300E-015, 25.14999999999997400 ) ) ;
#127 = DIRECTION ( 'NONE',  ( 0.7071067811865574500, 8.659560562354813300E-017, 0.7071067811865376900 ) ) ;
#128 = EDGE_LOOP ( 'NONE', ( #102, #95, #145 ) ) ;
#129 = PERSON_AND_ORGANIZATION ( #204, #63 ) ;
#130 = VERTEX_POINT ( 'NONE', #296 ) ;
#131 = MECHANICAL_CONTEXT ( 'NONE', #295, 'mechanical' ) ;
#132 = APPROVAL_DATE_TIME ( #248, #216 ) ;
#133 = DIRECTION ( 'NONE',  ( 0.0000000000000000000, 0.0000000000000000000, -1.000000000000000000 ) ) ;
#134 = CARTESIAN_POINT ( 'NONE',  ( -9.900000000000000400, 0.0000000000000000000, 0.0000000000000000000 ) ) ;
#135 = DIRECTION ( 'NONE',  ( -1.000000000000000000, -0.0000000000000000000, -0.0000000000000000000 ) ) ;
#136 = PRODUCT_DEFINITION_FORMATION_WITH_SPECIFIED_SOURCE ( 'ANY', '', #196, .NOT_KNOWN. ) ;
#137 = CIRCLE ( 'NONE', #200, 25.39999999999999900 ) ;
#138 = AXIS2_PLACEMENT_3D ( 'NONE', #16, #117, #181 ) ;
#139 = VERTEX_POINT ( 'NONE', #176 ) ;
#140 = CARTESIAN_POINT ( 'NONE',  ( -7.150000000000002100, 3.110602869834276900E-015, -25.39999999999999900 ) ) ;
#141 = EDGE_CURVE ( 'NONE', #88, #47, #235, .T. ) ;
#142 = EDGE_CURVE ( 'NONE', #122, #101, #247, .T. ) ;
#143 = COORDINATED_UNIVERSAL_TIME_OFFSET ( 5, 0, .BEHIND. ) ;
#144 = EDGE_LOOP ( 'NONE', ( #282, #268, #72, #59 ) ) ;
#145 = ORIENTED_EDGE ( 'NONE', *, *, #283, .T. ) ;
#146 = CONICAL_SURFACE ( 'NONE', #218, 25.39999999999999900, 0.2010242663278876400 ) ;
#147 = DIRECTION ( 'NONE',  ( 0.0000000000000000000, 0.0000000000000000000, 1.000000000000000000 ) ) ;
#148 = DIRECTION ( 'NONE',  ( -1.000000000000000000, -0.0000000000000000000, -0.0000000000000000000 ) ) ;
#149 = EDGE_LOOP ( 'NONE', ( #77, #183, #36, #20 ) ) ;
#150 = APPROVAL ( #269, 'UNSPECIFIED' ) ;
#151 = DATE_AND_TIME ( #105, #188 ) ;
#152 = DIRECTION ( 'NONE',  ( -1.000000000000000000, -0.0000000000000000000, -0.0000000000000000000 ) ) ;
#153 = ORIENTED_EDGE ( 'NONE', *, *, #299, .T. ) ;
#154 = CALENDAR_DATE ( 2015, 29, 5 ) ;
#155 = CC_DESIGN_PERSON_AND_ORGANIZATION_ASSIGNMENT ( #104, #82, ( #196 ) ) ;
#156 = PLANE ( 'NONE',  #57 ) ;
#157 =( GEOMETRIC_REPRESENTATION_CONTEXT ( 3 ) GLOBAL_UNCERTAINTY_ASSIGNED_CONTEXT ( ( #90 ) ) GLOBAL_UNIT_ASSIGNED_CONTEXT ( ( #281, #279, #276 ) ) REPRESENTATION_CONTEXT ( 'NONE', 'WORKASPACE' ) );
#158 = ORIENTED_EDGE ( 'NONE', *, *, #220, .F. ) ;
#159 = APPROVAL_ROLE ( '' ) ;
#160 = CONICAL_SURFACE ( 'NONE', #166, 25.14999999999997400, 0.7853981633974344000 ) ;
#161 = DATE_AND_TIME ( #194, #60 ) ;
#162 = ORIENTED_EDGE ( 'NONE', *, *, #51, .F. ) ;
#163 = EDGE_LOOP ( 'NONE', ( #254, #106, #199, #158 ) ) ;
#164 = FACE_OUTER_BOUND ( 'NONE', #144, .T. ) ;
#165 = DIRECTION ( 'NONE',  ( -1.000000000000000000, -0.0000000000000000000, -0.0000000000000000000 ) ) ;
#166 = AXIS2_PLACEMENT_3D ( 'NONE', #53, #5, #230 ) ;
#167 = DIRECTION ( 'NONE',  ( 0.0000000000000000000, 0.0000000000000000000, 1.000000000000000000 ) ) ;
#168 = CARTESIAN_POINT ( 'NONE',  ( -17.69999998876788500, 0.0000000000000000000, 0.0000000000000000000 ) ) ;
#169 = DIRECTION ( 'NONE',  ( -0.9798625734664859800, 0.0000000000000000000, 0.1996730756001803800 ) ) ;
#170 = CIRCLE ( 'NONE', #245, 27.60000000000000500 ) ;
#171 = DATE_TIME_ROLE ( 'classification_date' ) ;
#172 = VECTOR ( 'NONE', #92, 999.9999999999998900 ) ;
#173 = DIRECTION ( 'NONE',  ( 1.000000000000000000, 0.0000000000000000000, 0.0000000000000000000 ) ) ;
#174 = CC_DESIGN_APPROVAL ( #150, ( #136 ) ) ;
#175 = DIRECTION ( 'NONE',  ( 0.0000000000000000000, 0.0000000000000000000, 1.000000000000000000 ) ) ;
#176 = CARTESIAN_POINT ( 'NONE',  ( 9.900000000000000400, 0.0000000000000000000, 0.0000000000000000000 ) ) ;
#177 = VERTEX_POINT ( 'NONE', #301 ) ;
#178 = VERTEX_POINT ( 'NONE', #140 ) ;
#179 = CALENDAR_DATE ( 2015, 29, 5 ) ;
#180 = CC_DESIGN_PERSON_AND_ORGANIZATION_ASSIGNMENT ( #193, #34, ( #33 ) ) ;
#181 = DIRECTION ( 'NONE',  ( 0.0000000000000000000, 0.0000000000000000000, -1.000000000000000000 ) ) ;
#182 = COORDINATED_UNIVERSAL_TIME_OFFSET ( 5, 0, .BEHIND. ) ;
#183 = ORIENTED_EDGE ( 'NONE', *, *, #283, .F. ) ;
#184 = ORIENTED_EDGE ( 'NONE', *, *, #67, .T. ) ;
#185 = DIRECTION ( 'NONE',  ( 0.0000000000000000000, 0.0000000000000000000, -1.000000000000000000 ) ) ;
#186 = CARTESIAN_POINT ( 'NONE',  ( -7.150000000000002100, 0.0000000000000000000, 0.0000000000000000000 ) ) ;
#187 = CC_DESIGN_DATE_AND_TIME_ASSIGNMENT ( #151, #171, ( #258 ) ) ;
#188 = LOCAL_TIME ( 10, 23, 39.00000000000000000, #32 ) ;
#189 = CARTESIAN_POINT ( 'NONE',  ( -17.69999998876788500, 0.0000000000000000000, 0.0000000000000000000 ) ) ;
#190 = EDGE_LOOP ( 'NONE', ( #17, #153, #229, #46 ) ) ;
#191 = CARTESIAN_POINT ( 'NONE',  ( -9.649999999999970200, 0.0000000000000000000, 0.0000000000000000000 ) ) ;
#192 = AXIS2_PLACEMENT_3D ( 'NONE', #189, #148, #167 ) ;
#193 = PERSON_AND_ORGANIZATION ( #204, #63 ) ;
#194 = CALENDAR_DATE ( 2015, 29, 5 ) ;
#195 = MANIFOLD_SOLID_BREP ( '4292-001-1-solid1', #206 ) ;
#196 = PRODUCT ( '4292-E0W', '4292-E0W', '', ( #131 ) ) ;
#197 = DATE_AND_TIME ( #154, #109 ) ;
#198 = VECTOR ( 'NONE', #52, 1000.000000000000000 ) ;
#199 = ORIENTED_EDGE ( 'NONE', *, *, #6, .F. ) ;
#200 = AXIS2_PLACEMENT_3D ( 'NONE', #71, #120, #284 ) ;
#201 = APPROVAL_DATE_TIME ( #197, #274 ) ;
#202 = TOROIDAL_SURFACE ( 'NONE', #11, 0.0007874090039144271400, 27.60000000000000500 ) ;
#203 = CARTESIAN_POINT ( 'NONE',  ( -9.649999999999970200, 0.0000000000000000000, 25.39999999999999900 ) ) ;
#204 = PERSON ( 'UNSPECIFIED', 'UNSPECIFIED', 'UNSPECIFIED', ('UNSPECIFIED'), ('UNSPECIFIED'), ('UNSPECIFIED') ) ;
#205 = LOCAL_TIME ( 10, 23, 39.00000000000000000, #208 ) ;
#206 = CLOSED_SHELL ( 'NONE', ( #98, #115, #271, #91, #118, #37, #23, #253, #266 ) ) ;
#207 = DIRECTION ( 'NONE',  ( 0.0000000000000000000, 0.0000000000000000000, -1.000000000000000000 ) ) ;
#208 = COORDINATED_UNIVERSAL_TIME_OFFSET ( 5, 0, .BEHIND. ) ;
#209 = APPROVAL_ROLE ( '' ) ;
#210 = CARTESIAN_POINT ( 'NONE',  ( -7.150000000000002100, 0.0000000000000000000, 0.0000000000000000000 ) ) ;
#211 = EDGE_CURVE ( 'NONE', #139, #177, #272, .T. ) ;
#212 = COORDINATED_UNIVERSAL_TIME_OFFSET ( 5, 0, .BEHIND. ) ;
#213 = CARTESIAN_POINT ( 'NONE',  ( -7.150000000000002100, 3.110602869834276100E-015, -25.39999999999999900 ) ) ;
#214 = CC_DESIGN_SECURITY_CLASSIFICATION ( #258, ( #136 ) ) ;
#215 = CARTESIAN_POINT ( 'NONE',  ( -9.900000000000000400, 0.0000000000000000000, 25.39999999999999900 ) ) ;
#216 = APPROVAL ( #44, 'UNSPECIFIED' ) ;
#217 = VECTOR ( 'NONE', #169, 1000.000000000000100 ) ;
#218 = AXIS2_PLACEMENT_3D ( 'NONE', #210, #123, #40 ) ;
#219 = PERSON_AND_ORGANIZATION ( #204, #63 ) ;
#220 = EDGE_CURVE ( 'NONE', #12, #130, #86, .T. ) ;
#221 = FACE_OUTER_BOUND ( 'NONE', #190, .T. ) ;
#222 = CIRCLE ( 'NONE', #251, 25.30325848428735100 ) ;
#223 = EDGE_CURVE ( 'NONE', #47, #88, #275, .T. ) ;
#224 = CIRCLE ( 'NONE', #280, 25.30325848428735100 ) ;
#225 = AXIS2_PLACEMENT_3D ( 'NONE', #10, #96, #231 ) ;
#226 = LINE ( 'NONE', #126, #286 ) ;
#227 = CYLINDRICAL_SURFACE ( 'NONE', #103, 25.39999999999999900 ) ;
#228 = EDGE_LOOP ( 'NONE', ( #263, #113, #116 ) ) ;
#229 = ORIENTED_EDGE ( 'NONE', *, *, #51, .T. ) ;
#230 = DIRECTION ( 'NONE',  ( 0.0000000000000000000, 0.0000000000000000000, -1.000000000000000000 ) ) ;
#231 = DIRECTION ( 'NONE',  ( 0.0000000000000000000, 0.0000000000000000000, 1.000000000000000000 ) ) ;
#232 = APPROVAL_PERSON_ORGANIZATION ( #56, #274, #159 ) ;
#233 = LOCAL_TIME ( 10, 23, 39.00000000000000000, #212 ) ;
#234 = EDGE_CURVE ( 'NONE', #177, #178, #260, .T. ) ;
#235 = CIRCLE ( 'NONE', #14, 25.14999999999997400 ) ;
#236 = DIRECTION ( 'NONE',  ( -0.9798625734664859800, 2.445289929096683300E-017, -0.1996730756001803800 ) ) ;
#237 = EDGE_CURVE ( 'NONE', #178, #122, #278, .T. ) ;
#238 = CARTESIAN_POINT ( 'NONE',  ( -9.900000000000000400, 3.110602869834276900E-015, -25.39999999999999900 ) ) ;
#239 = DIRECTION ( 'NONE',  ( 1.000000000000000000, 0.0000000000000000000, 0.0000000000000000000 ) ) ;
#240 = DIRECTION ( 'NONE',  ( 1.000000000000000000, 0.0000000000000000000, 0.0000000000000000000 ) ) ;
#241 = AXIS2_PLACEMENT_3D ( 'NONE', #290, #175, #300 ) ;
#242 = DIRECTION ( 'NONE',  ( 0.0000000000000000000, 0.0000000000000000000, 1.000000000000000000 ) ) ;
#243 = APPROVAL_PERSON_ORGANIZATION ( #129, #150, #209 ) ;
#244 = CARTESIAN_POINT ( 'NONE',  ( -9.649999999999970200, 0.0000000000000000000, 0.0000000000000000000 ) ) ;
#245 = AXIS2_PLACEMENT_3D ( 'NONE', #78, #24, #207 ) ;
#246 = ORIENTED_EDGE ( 'NONE', *, *, #142, .T. ) ;
#247 = CIRCLE ( 'NONE', #107, 25.39999999999999900 ) ;
#248 = DATE_AND_TIME ( #179, #233 ) ;
#249 = PERSON_AND_ORGANIZATION_ROLE ( 'classification_officer' ) ;
#250 = FACE_OUTER_BOUND ( 'NONE', #163, .T. ) ;
#251 = AXIS2_PLACEMENT_3D ( 'NONE', #79, #239, #26 ) ;
#252 = AXIS2_PLACEMENT_3D ( 'NONE', #186, #255, #58 ) ;
#253 = ADVANCED_FACE ( 'NONE', ( #8 ), #146, .T. ) ;
#254 = ORIENTED_EDGE ( 'NONE', *, *, #73, .F. ) ;
#255 = DIRECTION ( 'NONE',  ( -1.000000000000000000, -0.0000000000000000000, -0.0000000000000000000 ) ) ;
#256 = CIRCLE ( 'NONE', #252, 25.39999999999999900 ) ;
#257 = CARTESIAN_POINT ( 'NONE',  ( -17.69999998876788500, 9.642979162636089200E-020, -0.0007874090039144271400 ) ) ;
#258 = SECURITY_CLASSIFICATION ( '', '', #292 ) ;
#259 = DESIGN_CONTEXT ( 'detailed design', #31, 'design' ) ;
#260 = LINE ( 'NONE', #213, #66 ) ;
#261 = FACE_OUTER_BOUND ( 'NONE', #25, .T. ) ;
#262 = CC_DESIGN_PERSON_AND_ORGANIZATION_ASSIGNMENT ( #111, #64, ( #136 ) ) ;
#263 = ORIENTED_EDGE ( 'NONE', *, *, #62, .F. ) ;
#264 = AXIS2_PLACEMENT_3D ( 'NONE', #134, #135, #19 ) ;
#265 = LINE ( 'NONE', #215, #270 ) ;
#266 = ADVANCED_FACE ( 'NONE', ( #164 ), #298, .T. ) ;
#267 = DATE_TIME_ROLE ( 'creation_date' ) ;
#268 = ORIENTED_EDGE ( 'NONE', *, *, #141, .F. ) ;
#269 = APPROVAL_STATUS ( 'not_yet_approved' ) ;
#270 = VECTOR ( 'NONE', #22, 1000.000000000000000 ) ;
#271 = ADVANCED_FACE ( 'NONE', ( #89 ), #114, .T. ) ;
#272 = CIRCLE ( 'NONE', #87, 27.60000000000000500 ) ;
#273 = PERSON_AND_ORGANIZATION ( #204, #63 ) ;
#274 = APPROVAL ( #28, 'UNSPECIFIED' ) ;
#275 = CIRCLE ( 'NONE', #264, 25.14999999999997400 ) ;
#276 =( NAMED_UNIT ( * ) SI_UNIT ( $, .STERADIAN. ) SOLID_ANGLE_UNIT ( ) );
#277 = ORIENTED_EDGE ( 'NONE', *, *, #223, .F. ) ;
#278 = LINE ( 'NONE', #238, #198 ) ;
#279 =( NAMED_UNIT ( * ) PLANE_ANGLE_UNIT ( ) SI_UNIT ( $, .RADIAN. ) );
#280 = AXIS2_PLACEMENT_3D ( 'NONE', #39, #74, #35 ) ;
#281 =( LENGTH_UNIT ( ) NAMED_UNIT ( * ) SI_UNIT ( .MILLI., .METRE. ) );
#282 = ORIENTED_EDGE ( 'NONE', *, *, #67, .F. ) ;
#283 = EDGE_CURVE ( 'NONE', #12, #177, #224, .T. ) ;
#284 = DIRECTION ( 'NONE',  ( 0.0000000000000000000, 0.0000000000000000000, 1.000000000000000000 ) ) ;
#285 = CARTESIAN_POINT ( 'NONE',  ( -6.675257021947970800, 0.0000000000000000000, 25.30325848428735500 ) ) ;
#286 = VECTOR ( 'NONE', #127, 999.9999999999998900 ) ;
#287 = APPROVAL_DATE_TIME ( #161, #150 ) ;
#288 = CARTESIAN_POINT ( 'NONE',  ( -7.150000000000002100, 0.0000000000000000000, 0.0000000000000000000 ) ) ;
#289 = ORIENTED_EDGE ( 'NONE', *, *, #69, .F. ) ;
#290 = CARTESIAN_POINT ( 'NONE',  ( 0.0000000000000000000, 0.0000000000000000000, 0.0000000000000000000 ) ) ;
#291 = ADVANCED_BREP_SHAPE_REPRESENTATION ( '4292-E0W', ( #195, #241 ), #157 ) ;
#292 = SECURITY_CLASSIFICATION_LEVEL ( 'unclassified' ) ;
#293 = PRODUCT_DEFINITION_SHAPE ( 'NONE', 'NONE',  #33 ) ;
#294 = APPLICATION_PROTOCOL_DEFINITION ( 'international standard', 'config_control_design', 1994, #295 ) ;
#295 = APPLICATION_CONTEXT ( 'configuration controlled 3d designs of mechanical parts and assemblies' ) ;
#296 = CARTESIAN_POINT ( 'NONE',  ( -7.150000000000002100, 0.0000000000000000000, 25.39999999999999900 ) ) ;
#297 = DIRECTION ( 'NONE',  ( -1.000000000000000000, -0.0000000000000000000, -0.0000000000000000000 ) ) ;
#298 = CONICAL_SURFACE ( 'NONE', #138, 25.14999999999997400, 0.7853981633974344000 ) ;
#299 = EDGE_CURVE ( 'NONE', #178, #130, #137, .T. ) ;
#300 = DIRECTION ( 'NONE',  ( 1.000000000000000000, 0.0000000000000000000, 0.0000000000000000000 ) ) ;
#301 = CARTESIAN_POINT ( 'NONE',  ( -6.675257021947970800, 3.098755451078061600E-015, -25.30325848428735500 ) ) ;
ENDSEC;
END-ISO-10303-21;
