ISO-10303-21;
HEADER;
FILE_DESCRIPTION (( 'STEP AP214' ),
    '1' );
FILE_NAME ('4595-E0W.STEP',
    '2009-12-21T17:11:58',
    ( ' ' ),
    ( ' ' ),
    'SwSTEP 2.0',
    'SolidWorks 2009',
    '' );
FILE_SCHEMA (( 'AUTOMOTIVE_DESIGN' ));
ENDSEC;

DATA;
#1 = DIRECTION ( 'NONE',  ( 0.0000000000000000000, 0.0000000000000000000, 1.000000000000000000 ) ) ;
#2 = AXIS2_PLACEMENT_3D ( 'NONE', #5, #1, #4 ) ;
#3 = APPLICATION_CONTEXT ( 'automotive_design' ) ;
#4 = DIRECTION ( 'NONE',  ( 1.000000000000000000, 0.0000000000000000000, 0.0000000000000000000 ) ) ;
#5 = CARTESIAN_POINT ( 'NONE',  ( 0.0000000000000000000, 0.0000000000000000000, 0.0000000000000000000 ) ) ;
#6 = PRODUCT_DEFINITION_SHAPE ( 'NONE', 'NONE',  #9 ) ;
#7 = PRODUCT_RELATED_PRODUCT_CATEGORY ( 'part', '', ( #14 ) ) ;
#8 = PRODUCT_DEFINITION_FORMATION_WITH_SPECIFIED_SOURCE ( 'ANY', '', #14, .NOT_KNOWN. ) ;
#9 = PRODUCT_DEFINITION ( 'UNKNOWN', '', #8, #10 ) ;
#10 = PRODUCT_DEFINITION_CONTEXT ( 'detailed design', #12, 'design' ) ;
#11 = APPLICATION_PROTOCOL_DEFINITION ( 'draft international standard', 'automotive_design', 1998, #12 ) ;
#12 = APPLICATION_CONTEXT ( 'automotive_design' ) ;
#13 = SHAPE_DEFINITION_REPRESENTATION ( #6, #252 ) ;
#14 = PRODUCT ( '4595-E0W', '4595-E0W', '', ( #15 ) ) ;
#15 = PRODUCT_CONTEXT ( 'NONE', #3, 'mechanical' ) ;
#16 = APPLICATION_PROTOCOL_DEFINITION ( 'draft international standard', 'automotive_design', 1998, #3 ) ;
#17 = ORIENTED_EDGE ( 'NONE', *, *, #46, .T. ) ;
#18 = CLOSED_SHELL ( 'NONE', ( #62, #51, #32, #37, #79 ) ) ;
#19 = ORIENTED_EDGE ( 'NONE', *, *, #30, .F. ) ;
#20 = ORIENTED_EDGE ( 'NONE', *, *, #22, .T. ) ;
#21 = EDGE_LOOP ( 'NONE', ( #19, #20, #17, #78, #77 ) ) ;
#22 = EDGE_CURVE ( 'NONE', #49, #55, #103, .T. ) ;
#23 = EDGE_CURVE ( 'NONE', #42, #35, #112, .T. ) ;
#24 = ORIENTED_EDGE ( 'NONE', *, *, #34, .F. ) ;
#25 = ORIENTED_EDGE ( 'NONE', *, *, #23, .T. ) ;
#26 = ORIENTED_EDGE ( 'NONE', *, *, #23, .F. ) ;
#27 = EDGE_CURVE ( 'NONE', #35, #36, #100, .T. ) ;
#28 = ORIENTED_EDGE ( 'NONE', *, *, #34, .T. ) ;
#29 = VERTEX_POINT ( 'NONE', #101 ) ;
#30 = EDGE_CURVE ( 'NONE', #49, #36, #96, .T. ) ;
#31 = EDGE_LOOP ( 'NONE', ( #40, #38, #25, #28 ) ) ;
#32 = ADVANCED_FACE ( 'NONE', ( #97 ), #120, .T. ) ;
#33 = ORIENTED_EDGE ( 'NONE', *, *, #46, .F. ) ;
#34 = EDGE_CURVE ( 'NONE', #35, #29, #65, .T. ) ;
#35 = VERTEX_POINT ( 'NONE', #135 ) ;
#36 = VERTEX_POINT ( 'NONE', #138 ) ;
#37 = ADVANCED_FACE ( 'NONE', ( #134 ), #143, .T. ) ;
#38 = ORIENTED_EDGE ( 'NONE', *, *, #41, .T. ) ;
#39 = ORIENTED_EDGE ( 'NONE', *, *, #27, .F. ) ;
#40 = ORIENTED_EDGE ( 'NONE', *, *, #56, .F. ) ;
#41 = EDGE_CURVE ( 'NONE', #52, #42, #69, .T. ) ;
#42 = VERTEX_POINT ( 'NONE', #146 ) ;
#43 = ORIENTED_EDGE ( 'NONE', *, *, #30, .T. ) ;
#44 = ORIENTED_EDGE ( 'NONE', *, *, #56, .T. ) ;
#45 = EDGE_LOOP ( 'NONE', ( #57, #50, #44, #24 ) ) ;
#46 = EDGE_CURVE ( 'NONE', #55, #42, #147, .T. ) ;
#47 = EDGE_LOOP ( 'NONE', ( #53, #43, #39, #26, #33 ) ) ;
#48 = EDGE_CURVE ( 'NONE', #36, #52, #148, .T. ) ;
#49 = VERTEX_POINT ( 'NONE', #171 ) ;
#50 = ORIENTED_EDGE ( 'NONE', *, *, #48, .T. ) ;
#51 = ADVANCED_FACE ( 'NONE', ( #179 ), #239, .T. ) ;
#52 = VERTEX_POINT ( 'NONE', #234 ) ;
#53 = ORIENTED_EDGE ( 'NONE', *, *, #54, .T. ) ;
#54 = EDGE_CURVE ( 'NONE', #55, #49, #233, .T. ) ;
#55 = VERTEX_POINT ( 'NONE', #228 ) ;
#56 = EDGE_CURVE ( 'NONE', #52, #29, #226, .T. ) ;
#57 = ORIENTED_EDGE ( 'NONE', *, *, #27, .T. ) ;
#58 = MANIFOLD_SOLID_BREP ( 'NONE', #18 ) ;
#59 = DIRECTION ( 'NONE',  ( -0.0000000000000000000, -0.0000000000000000000, 1.000000000000000000 ) ) ;
#60 = AXIS2_PLACEMENT_3D ( 'NONE', #68, #67, #61 ) ;
#61 = DIRECTION ( 'NONE',  ( 0.0000000000000000000, 0.0000000000000000000, -1.000000000000000000 ) ) ;
#62 = ADVANCED_FACE ( 'NONE', ( #207 ), #191, .T. ) ;
#63 =( GEOMETRIC_REPRESENTATION_CONTEXT ( 3 ) GLOBAL_UNCERTAINTY_ASSIGNED_CONTEXT ( ( #113 ) ) GLOBAL_UNIT_ASSIGNED_CONTEXT ( ( #108, #90, #114 ) ) REPRESENTATION_CONTEXT ( 'NONE', 'WORKASPACE' ) );
#64 =( GEOMETRIC_REPRESENTATION_CONTEXT ( 3 ) GLOBAL_UNCERTAINTY_ASSIGNED_CONTEXT ( ( #125 ) ) GLOBAL_UNIT_ASSIGNED_CONTEXT ( ( #132, #133, #129 ) ) REPRESENTATION_CONTEXT ( 'NONE', 'WORKASPACE' ) );
#65 = CIRCLE ( 'NONE', #60, 20.59999999999999800 ) ;
#66 = AXIS2_PLACEMENT_3D ( 'NONE', #70, #59, #71 ) ;
#67 = DIRECTION ( 'NONE',  ( 1.000000000000000000, 0.0000000000000000000, 0.0000000000000000000 ) ) ;
#68 = CARTESIAN_POINT ( 'NONE',  ( 0.0000000000000000000, 0.0000000000000000000, -16.11500000000000200 ) ) ;
#69 = CIRCLE ( 'NONE', #66, 15.00000000000000200 ) ;
#70 = CARTESIAN_POINT ( 'NONE',  ( 0.0000000000000000000, 0.0000000000000000000, -1.995509924221768000 ) ) ;
#71 = DIRECTION ( 'NONE',  ( 1.000000000000000000, 0.0000000000000000000, 0.0000000000000000000 ) ) ;
#72 =( NAMED_UNIT ( * ) PLANE_ANGLE_UNIT ( ) SI_UNIT ( $, .RADIAN. ) );
#73 =( NAMED_UNIT ( * ) SI_UNIT ( $, .STERADIAN. ) SOLID_ANGLE_UNIT ( ) );
#74 = ORIENTED_EDGE ( 'NONE', *, *, #22, .F. ) ;
#75 = ORIENTED_EDGE ( 'NONE', *, *, #54, .F. ) ;
#76 = EDGE_LOOP ( 'NONE', ( #75, #74 ) ) ;
#77 = ORIENTED_EDGE ( 'NONE', *, *, #48, .F. ) ;
#78 = ORIENTED_EDGE ( 'NONE', *, *, #41, .F. ) ;
#79 = ADVANCED_FACE ( 'NONE', ( #168 ), #149, .F. ) ;
#80 = UNCERTAINTY_MEASURE_WITH_UNIT (LENGTH_MEASURE( 1.000000000000000100E-005 ), #241, 'distance_accuracy_value', 'NONE');
#81 = STYLED_ITEM ( 'NONE', ( #82 ), #32 ) ;
#82 = PRESENTATION_STYLE_ASSIGNMENT (( #83 ) ) ;
#83 = SURFACE_STYLE_USAGE ( .BOTH. , #84 ) ;
#84 = SURFACE_SIDE_STYLE ('',( #85 ) ) ;
#85 = SURFACE_STYLE_FILL_AREA ( #86 ) ;
#86 = FILL_AREA_STYLE ('',( #92 ) ) ;
#87 = DIRECTION ( 'NONE',  ( 1.000000000000000000, 0.0000000000000000000, 0.0000000000000000000 ) ) ;
#88 = DIRECTION ( 'NONE',  ( -0.0000000000000000000, -0.0000000000000000000, 1.000000000000000000 ) ) ;
#89 = AXIS2_PLACEMENT_3D ( 'NONE', #105, #91, #106 ) ;
#90 =( NAMED_UNIT ( * ) PLANE_ANGLE_UNIT ( ) SI_UNIT ( $, .RADIAN. ) );
#91 = DIRECTION ( 'NONE',  ( -0.0000000000000000000, -0.0000000000000000000, 1.000000000000000000 ) ) ;
#92 = FILL_AREA_STYLE_COLOUR ( '', #115 ) ;
#93 = DIRECTION ( 'NONE',  ( -0.0000000000000000000, -0.0000000000000000000, 1.000000000000000000 ) ) ;
#94 = VECTOR ( 'NONE', #93, 1000.000000000000000 ) ;
#95 = CARTESIAN_POINT ( 'NONE',  ( -15.00000000000000000, 1.836909530733565900E-015, 4.308132045400366600 ) ) ;
#96 = LINE ( 'NONE', #95, #94 ) ;
#97 = FACE_OUTER_BOUND ( 'NONE', #31, .T. ) ;
#98 = CARTESIAN_POINT ( 'NONE',  ( 0.0000000000000000000, 0.0000000000000000000, -1.995509924221768000 ) ) ;
#99 = AXIS2_PLACEMENT_3D ( 'NONE', #98, #88, #87 ) ;
#100 = CIRCLE ( 'NONE', #99, 15.00000000000000200 ) ;
#101 = CARTESIAN_POINT ( 'NONE',  ( 0.0000000000000000000, 1.261344544437048600E-015, 4.484999999999999400 ) ) ;
#102 = CARTESIAN_POINT ( 'NONE',  ( 0.0000000000000000000, 0.0000000000000000000, -4.484999999999999400 ) ) ;
#103 = CIRCLE ( 'NONE', #111, 15.00000000000000000 ) ;
#104 = DIRECTION ( 'NONE',  ( -0.0000000000000000000, -0.0000000000000000000, 1.000000000000000000 ) ) ;
#105 = CARTESIAN_POINT ( 'NONE',  ( 0.0000000000000000000, 0.0000000000000000000, -1.995509924221768000 ) ) ;
#106 = DIRECTION ( 'NONE',  ( 1.000000000000000000, 0.0000000000000000000, 0.0000000000000000000 ) ) ;
#107 =( GEOMETRIC_REPRESENTATION_CONTEXT ( 3 ) GLOBAL_UNCERTAINTY_ASSIGNED_CONTEXT ( ( #80 ) ) GLOBAL_UNIT_ASSIGNED_CONTEXT ( ( #241, #72, #73 ) ) REPRESENTATION_CONTEXT ( 'NONE', 'WORKASPACE' ) );
#108 =( LENGTH_UNIT ( ) NAMED_UNIT ( * ) SI_UNIT ( .MILLI., .METRE. ) );
#109 = MECHANICAL_DESIGN_GEOMETRIC_PRESENTATION_REPRESENTATION (  '', ( #81 ), #63 ) ;
#110 = PRESENTATION_LAYER_ASSIGNMENT (  '', '', ( #81 ) ) ;
#111 = AXIS2_PLACEMENT_3D ( 'NONE', #102, #104, #116 ) ;
#112 = CIRCLE ( 'NONE', #89, 15.00000000000000200 ) ;
#113 = UNCERTAINTY_MEASURE_WITH_UNIT (LENGTH_MEASURE( 1.000000000000000100E-005 ), #108, 'distance_accuracy_value', 'NONE');
#114 =( NAMED_UNIT ( * ) SI_UNIT ( $, .STERADIAN. ) SOLID_ANGLE_UNIT ( ) );
#115 = COLOUR_RGB ( '',0.9568627450980391500, 0.9490196078431372100, 0.9607843137254902200 ) ;
#116 = DIRECTION ( 'NONE',  ( 1.000000000000000000, 0.0000000000000000000, 0.0000000000000000000 ) ) ;
#117 = DIRECTION ( 'NONE',  ( -1.000000000000000000, 0.0000000000000000000, 0.0000000000000000000 ) ) ;
#118 = AXIS2_PLACEMENT_3D ( 'NONE', #119, #117, #121 ) ;
#119 = CARTESIAN_POINT ( 'NONE',  ( 0.0000000000000000000, 0.0000000000000000000, -16.11500000000000200 ) ) ;
#120 = SPHERICAL_SURFACE ( 'NONE', #118, 20.60000000000000100 ) ;
#121 = DIRECTION ( 'NONE',  ( 0.0000000000000000000, 1.000000000000000000, 0.0000000000000000000 ) ) ;
#122 = MECHANICAL_DESIGN_GEOMETRIC_PRESENTATION_REPRESENTATION (  '', ( #124 ), #64 ) ;
#123 = PRESENTATION_LAYER_ASSIGNMENT (  '', '', ( #124 ) ) ;
#124 = STYLED_ITEM ( 'NONE', ( #126 ), #37 ) ;
#125 = UNCERTAINTY_MEASURE_WITH_UNIT (LENGTH_MEASURE( 1.000000000000000100E-005 ), #132, 'distance_accuracy_value', 'NONE');
#126 = PRESENTATION_STYLE_ASSIGNMENT (( #127 ) ) ;
#127 = SURFACE_STYLE_USAGE ( .BOTH. , #136 ) ;
#128 = FILL_AREA_STYLE ('',( #131 ) ) ;
#129 =( NAMED_UNIT ( * ) SI_UNIT ( $, .STERADIAN. ) SOLID_ANGLE_UNIT ( ) );
#130 = COLOUR_RGB ( '',0.9568627450980391500, 0.9490196078431372100, 0.9607843137254902200 ) ;
#131 = FILL_AREA_STYLE_COLOUR ( '', #130 ) ;
#132 =( LENGTH_UNIT ( ) NAMED_UNIT ( * ) SI_UNIT ( .MILLI., .METRE. ) );
#133 =( NAMED_UNIT ( * ) PLANE_ANGLE_UNIT ( ) SI_UNIT ( $, .RADIAN. ) );
#134 = FACE_OUTER_BOUND ( 'NONE', #21, .T. ) ;
#135 = CARTESIAN_POINT ( 'NONE',  ( 0.0000000000000000000, 15.00000000000000200, -1.995509924221768000 ) ) ;
#136 = SURFACE_SIDE_STYLE ('',( #137 ) ) ;
#137 = SURFACE_STYLE_FILL_AREA ( #128 ) ;
#138 = CARTESIAN_POINT ( 'NONE',  ( -15.00000000000000400, 1.836909530733566300E-015, -1.995509924221768000 ) ) ;
#139 = AXIS2_PLACEMENT_3D ( 'NONE', #142, #141, #140 ) ;
#140 = DIRECTION ( 'NONE',  ( 1.000000000000000000, 0.0000000000000000000, 0.0000000000000000000 ) ) ;
#141 = DIRECTION ( 'NONE',  ( -0.0000000000000000000, -0.0000000000000000000, 1.000000000000000000 ) ) ;
#142 = CARTESIAN_POINT ( 'NONE',  ( 0.0000000000000000000, 0.0000000000000000000, 4.308132045400366600 ) ) ;
#143 = CYLINDRICAL_SURFACE ( 'NONE', #139, 15.00000000000000000 ) ;
#144 = DIRECTION ( 'NONE',  ( -0.0000000000000000000, -0.0000000000000000000, 1.000000000000000000 ) ) ;
#145 = VECTOR ( 'NONE', #144, 1000.000000000000000 ) ;
#146 = CARTESIAN_POINT ( 'NONE',  ( 15.00000000000000400, 0.0000000000000000000, -1.995509924221768000 ) ) ;
#147 = LINE ( 'NONE', #181, #145 ) ;
#148 = CIRCLE ( 'NONE', #180, 15.00000000000000200 ) ;
#149 = PLANE ( 'NONE',  #261 ) ;
#150 =( GEOMETRIC_REPRESENTATION_CONTEXT ( 3 ) GLOBAL_UNCERTAINTY_ASSIGNED_CONTEXT ( ( #151 ) ) GLOBAL_UNIT_ASSIGNED_CONTEXT ( ( #154, #153, #152 ) ) REPRESENTATION_CONTEXT ( 'NONE', 'WORKASPACE' ) );
#151 = UNCERTAINTY_MEASURE_WITH_UNIT (LENGTH_MEASURE( 1.000000000000000100E-005 ), #154, 'distance_accuracy_value', 'NONE');
#152 =( NAMED_UNIT ( * ) SI_UNIT ( $, .STERADIAN. ) SOLID_ANGLE_UNIT ( ) );
#153 =( NAMED_UNIT ( * ) PLANE_ANGLE_UNIT ( ) SI_UNIT ( $, .RADIAN. ) );
#154 =( LENGTH_UNIT ( ) NAMED_UNIT ( * ) SI_UNIT ( .MILLI., .METRE. ) );
#155 = MECHANICAL_DESIGN_GEOMETRIC_PRESENTATION_REPRESENTATION (  '', ( #157 ), #150 ) ;
#156 = PRESENTATION_LAYER_ASSIGNMENT (  '', '', ( #157 ) ) ;
#157 = STYLED_ITEM ( 'NONE', ( #158 ), #79 ) ;
#158 = PRESENTATION_STYLE_ASSIGNMENT (( #159 ) ) ;
#159 = SURFACE_STYLE_USAGE ( .BOTH. , #160 ) ;
#160 = SURFACE_SIDE_STYLE ('',( #161 ) ) ;
#161 = SURFACE_STYLE_FILL_AREA ( #162 ) ;
#162 = FILL_AREA_STYLE ('',( #169 ) ) ;
#163 = COLOUR_RGB ( '',0.9568627450980391500, 0.9490196078431372100, 0.9607843137254902200 ) ;
#164 = DIRECTION ( 'NONE',  ( 1.000000000000000000, 0.0000000000000000000, 0.0000000000000000000 ) ) ;
#165 = DIRECTION ( 'NONE',  ( -0.0000000000000000000, -0.0000000000000000000, 1.000000000000000000 ) ) ;
#166 = CARTESIAN_POINT ( 'NONE',  ( 0.0000000000000000000, 0.0000000000000000000, 4.308132045400366600 ) ) ;
#167 = AXIS2_PLACEMENT_3D ( 'NONE', #166, #165, #164 ) ;
#168 = FACE_OUTER_BOUND ( 'NONE', #76, .T. ) ;
#169 = FILL_AREA_STYLE_COLOUR ( '', #163 ) ;
#170 = FILL_AREA_STYLE_COLOUR ( '', #178 ) ;
#171 = CARTESIAN_POINT ( 'NONE',  ( -15.00000000000000000, 1.836909530733565900E-015, -4.484999999999999400 ) ) ;
#172 = CARTESIAN_POINT ( 'NONE',  ( 0.0000000000000000000, 0.0000000000000000000, -1.995509924221768000 ) ) ;
#173 =( LENGTH_UNIT ( ) NAMED_UNIT ( * ) SI_UNIT ( .MILLI., .METRE. ) );
#174 = MECHANICAL_DESIGN_GEOMETRIC_PRESENTATION_REPRESENTATION (  '', ( #186 ), #240 ) ;
#175 = DIRECTION ( 'NONE',  ( 1.000000000000000000, 0.0000000000000000000, 0.0000000000000000000 ) ) ;
#176 = DIRECTION ( 'NONE',  ( -0.0000000000000000000, -0.0000000000000000000, 1.000000000000000000 ) ) ;
#177 = FILL_AREA_STYLE ('',( #170 ) ) ;
#178 = COLOUR_RGB ( '',0.9568627450980391500, 0.9490196078431372100, 0.9607843137254902200 ) ;
#179 = FACE_OUTER_BOUND ( 'NONE', #45, .T. ) ;
#180 = AXIS2_PLACEMENT_3D ( 'NONE', #172, #176, #175 ) ;
#181 = CARTESIAN_POINT ( 'NONE',  ( 15.00000000000000000, 0.0000000000000000000, 4.308132045400366600 ) ) ;
#182 = UNCERTAINTY_MEASURE_WITH_UNIT (LENGTH_MEASURE( 1.000000000000000100E-005 ), #173, 'distance_accuracy_value', 'NONE');
#183 =( NAMED_UNIT ( * ) SI_UNIT ( $, .STERADIAN. ) SOLID_ANGLE_UNIT ( ) );
#184 =( NAMED_UNIT ( * ) PLANE_ANGLE_UNIT ( ) SI_UNIT ( $, .RADIAN. ) );
#185 = PRESENTATION_LAYER_ASSIGNMENT (  '', '', ( #186 ) ) ;
#186 = STYLED_ITEM ( 'NONE', ( #187 ), #51 ) ;
#187 = PRESENTATION_STYLE_ASSIGNMENT (( #188 ) ) ;
#188 = SURFACE_STYLE_USAGE ( .BOTH. , #189 ) ;
#189 = SURFACE_SIDE_STYLE ('',( #190 ) ) ;
#190 = SURFACE_STYLE_FILL_AREA ( #177 ) ;
#191 = CYLINDRICAL_SURFACE ( 'NONE', #167, 15.00000000000000000 ) ;
#192 =( GEOMETRIC_REPRESENTATION_CONTEXT ( 3 ) GLOBAL_UNCERTAINTY_ASSIGNED_CONTEXT ( ( #193 ) ) GLOBAL_UNIT_ASSIGNED_CONTEXT ( ( #196, #195, #194 ) ) REPRESENTATION_CONTEXT ( 'NONE', 'WORKASPACE' ) );
#193 = UNCERTAINTY_MEASURE_WITH_UNIT (LENGTH_MEASURE( 1.000000000000000100E-005 ), #196, 'distance_accuracy_value', 'NONE');
#194 =( NAMED_UNIT ( * ) SI_UNIT ( $, .STERADIAN. ) SOLID_ANGLE_UNIT ( ) );
#195 =( NAMED_UNIT ( * ) PLANE_ANGLE_UNIT ( ) SI_UNIT ( $, .RADIAN. ) );
#196 =( LENGTH_UNIT ( ) NAMED_UNIT ( * ) SI_UNIT ( .MILLI., .METRE. ) );
#197 = MECHANICAL_DESIGN_GEOMETRIC_PRESENTATION_REPRESENTATION (  '', ( #199 ), #192 ) ;
#198 = PRESENTATION_LAYER_ASSIGNMENT (  '', '', ( #199 ) ) ;
#199 = STYLED_ITEM ( 'NONE', ( #200 ), #62 ) ;
#200 = PRESENTATION_STYLE_ASSIGNMENT (( #201 ) ) ;
#201 = SURFACE_STYLE_USAGE ( .BOTH. , #202 ) ;
#202 = SURFACE_SIDE_STYLE ('',( #203 ) ) ;
#203 = SURFACE_STYLE_FILL_AREA ( #204 ) ;
#204 = FILL_AREA_STYLE ('',( #205 ) ) ;
#205 = FILL_AREA_STYLE_COLOUR ( '', #206 ) ;
#206 = COLOUR_RGB ( '',0.9568627450980391500, 0.9490196078431372100, 0.9607843137254902200 ) ;
#207 = FACE_OUTER_BOUND ( 'NONE', #47, .T. ) ;
#208 =( GEOMETRIC_REPRESENTATION_CONTEXT ( 3 ) GLOBAL_UNCERTAINTY_ASSIGNED_CONTEXT ( ( #209 ) ) GLOBAL_UNIT_ASSIGNED_CONTEXT ( ( #212, #211, #210 ) ) REPRESENTATION_CONTEXT ( 'NONE', 'WORKASPACE' ) );
#209 = UNCERTAINTY_MEASURE_WITH_UNIT (LENGTH_MEASURE( 1.000000000000000100E-005 ), #212, 'distance_accuracy_value', 'NONE');
#210 =( NAMED_UNIT ( * ) SI_UNIT ( $, .STERADIAN. ) SOLID_ANGLE_UNIT ( ) );
#211 =( NAMED_UNIT ( * ) PLANE_ANGLE_UNIT ( ) SI_UNIT ( $, .RADIAN. ) );
#212 =( LENGTH_UNIT ( ) NAMED_UNIT ( * ) SI_UNIT ( .MILLI., .METRE. ) );
#213 = MECHANICAL_DESIGN_GEOMETRIC_PRESENTATION_REPRESENTATION (  '', ( #215 ), #208 ) ;
#214 = PRESENTATION_LAYER_ASSIGNMENT (  '', '', ( #215 ) ) ;
#215 = STYLED_ITEM ( 'NONE', ( #216 ), #58 ) ;
#216 = PRESENTATION_STYLE_ASSIGNMENT (( #217 ) ) ;
#217 = SURFACE_STYLE_USAGE ( .BOTH. , #218 ) ;
#218 = SURFACE_SIDE_STYLE ('',( #219 ) ) ;
#219 = SURFACE_STYLE_FILL_AREA ( #220 ) ;
#220 = FILL_AREA_STYLE ('',( #227 ) ) ;
#221 = COLOUR_RGB ( '',0.7960784313725489700, 0.8235294117647058400, 0.9372549019607843100 ) ;
#222 = DIRECTION ( 'NONE',  ( -1.224606353822377300E-016, -1.000000000000000000, 0.0000000000000000000 ) ) ;
#223 = DIRECTION ( 'NONE',  ( -1.000000000000000000, 1.224606353822377300E-016, 0.0000000000000000000 ) ) ;
#224 = CARTESIAN_POINT ( 'NONE',  ( 0.0000000000000000000, 0.0000000000000000000, -16.11500000000000200 ) ) ;
#225 = AXIS2_PLACEMENT_3D ( 'NONE', #224, #223, #222 ) ;
#226 = CIRCLE ( 'NONE', #225, 20.60000000000000100 ) ;
#227 = FILL_AREA_STYLE_COLOUR ( '', #221 ) ;
#228 = CARTESIAN_POINT ( 'NONE',  ( 15.00000000000000000, 0.0000000000000000000, -4.484999999999999400 ) ) ;
#229 = DIRECTION ( 'NONE',  ( 1.000000000000000000, 0.0000000000000000000, 0.0000000000000000000 ) ) ;
#230 = DIRECTION ( 'NONE',  ( -0.0000000000000000000, -0.0000000000000000000, 1.000000000000000000 ) ) ;
#231 = CARTESIAN_POINT ( 'NONE',  ( 0.0000000000000000000, 0.0000000000000000000, -4.484999999999999400 ) ) ;
#232 = AXIS2_PLACEMENT_3D ( 'NONE', #231, #230, #229 ) ;
#233 = CIRCLE ( 'NONE', #232, 15.00000000000000000 ) ;
#234 = CARTESIAN_POINT ( 'NONE',  ( -1.836909530733566300E-015, -15.00000000000000200, -1.995509924221768000 ) ) ;
#235 = DIRECTION ( 'NONE',  ( 0.0000000000000000000, 1.000000000000000000, 0.0000000000000000000 ) ) ;
#236 = DIRECTION ( 'NONE',  ( -1.000000000000000000, 0.0000000000000000000, 0.0000000000000000000 ) ) ;
#237 = CARTESIAN_POINT ( 'NONE',  ( 0.0000000000000000000, 0.0000000000000000000, -16.11500000000000200 ) ) ;
#238 = AXIS2_PLACEMENT_3D ( 'NONE', #237, #236, #235 ) ;
#239 = SPHERICAL_SURFACE ( 'NONE', #238, 20.60000000000000100 ) ;
#240 =( GEOMETRIC_REPRESENTATION_CONTEXT ( 3 ) GLOBAL_UNCERTAINTY_ASSIGNED_CONTEXT ( ( #182 ) ) GLOBAL_UNIT_ASSIGNED_CONTEXT ( ( #173, #184, #183 ) ) REPRESENTATION_CONTEXT ( 'NONE', 'WORKASPACE' ) );
#241 =( LENGTH_UNIT ( ) NAMED_UNIT ( * ) SI_UNIT ( .MILLI., .METRE. ) );
#242 = MECHANICAL_DESIGN_GEOMETRIC_PRESENTATION_REPRESENTATION (  '', ( #244 ), #107 ) ;
#243 = PRESENTATION_LAYER_ASSIGNMENT (  '', '', ( #244 ) ) ;
#244 = STYLED_ITEM ( 'NONE', ( #245 ), #252 ) ;
#245 = PRESENTATION_STYLE_ASSIGNMENT (( #246 ) ) ;
#246 = SURFACE_STYLE_USAGE ( .BOTH. , #247 ) ;
#247 = SURFACE_SIDE_STYLE ('',( #248 ) ) ;
#248 = SURFACE_STYLE_FILL_AREA ( #249 ) ;
#249 = FILL_AREA_STYLE ('',( #250 ) ) ;
#250 = FILL_AREA_STYLE_COLOUR ( '', #251 ) ;
#251 = COLOUR_RGB ( '',0.7960784313725489700, 0.8235294117647058400, 0.9372549019607843100 ) ;
#252 = ADVANCED_BREP_SHAPE_REPRESENTATION ( '4595-E0W', ( #58, #2 ), #253 ) ;
#253 =( GEOMETRIC_REPRESENTATION_CONTEXT ( 3 ) GLOBAL_UNCERTAINTY_ASSIGNED_CONTEXT ( ( #254 ) ) GLOBAL_UNIT_ASSIGNED_CONTEXT ( ( #257, #256, #255 ) ) REPRESENTATION_CONTEXT ( 'NONE', 'WORKASPACE' ) );
#254 = UNCERTAINTY_MEASURE_WITH_UNIT (LENGTH_MEASURE( 1.000000000000000100E-005 ), #257, 'distance_accuracy_value', 'NONE');
#255 =( NAMED_UNIT ( * ) SI_UNIT ( $, .STERADIAN. ) SOLID_ANGLE_UNIT ( ) );
#256 =( NAMED_UNIT ( * ) PLANE_ANGLE_UNIT ( ) SI_UNIT ( $, .RADIAN. ) );
#257 =( LENGTH_UNIT ( ) NAMED_UNIT ( * ) SI_UNIT ( .MILLI., .METRE. ) );
#258 = DIRECTION ( 'NONE',  ( 1.000000000000000000, 0.0000000000000000000, 0.0000000000000000000 ) ) ;
#259 = DIRECTION ( 'NONE',  ( 0.0000000000000000000, -0.0000000000000000000, 1.000000000000000000 ) ) ;
#260 = CARTESIAN_POINT ( 'NONE',  ( 0.0000000000000000000, 1.647762268252763800E-015, -4.485000000000000300 ) ) ;
#261 = AXIS2_PLACEMENT_3D ( 'NONE', #260, #259, #258 ) ;
ENDSEC;
END-ISO-10303-21;
