ISO-10303-21;
HEADER;
FILE_DESCRIPTION (( 'STEP AP203' ),
    '1' );
FILE_NAME ('Web Model 36657MX_36657.step',
    '2017-10-31T14:05:08',
    ( '' ),
    ( '' ),
    'SwSTEP 2.0',
    'SolidWorks 2016',
    '' );
FILE_SCHEMA (( 'CONFIG_CONTROL_DESIGN' ));
ENDSEC;

DATA;
#1 = AXIS2_PLACEMENT_3D ( 'NONE', #116, #130, #60 ) ;
#2 = PERSON_AND_ORGANIZATION ( #127, #47 ) ;
#3 = EDGE_LOOP ( 'NONE', ( #164, #83 ) ) ;
#4 = MANIFOLD_SOLID_BREP ( 'Boss-Extrude1', #160 ) ;
#5 = PERSON_AND_ORGANIZATION ( #127, #47 ) ;
#6 = CARTESIAN_POINT ( 'NONE',  ( -25.00000000000000000, 0.0000000000000000000, 3.000000000000000000 ) ) ;
#7 = DATE_AND_TIME ( #64, #105 ) ;
#8 = EDGE_CURVE ( 'NONE', #43, #15, #135, .T. ) ;
#9 = PERSON_AND_ORGANIZATION ( #127, #47 ) ;
#10 =( NAMED_UNIT ( * ) PLANE_ANGLE_UNIT ( ) SI_UNIT ( $, .RADIAN. ) );
#11 = PERSON_AND_ORGANIZATION_ROLE ( 'creator' ) ;
#12 = DIRECTION ( 'NONE',  ( -1.000000000000000000, 0.0000000000000000000, 0.0000000000000000000 ) ) ;
#13 = APPROVAL_ROLE ( '' ) ;
#14 = DATE_AND_TIME ( #78, #56 ) ;
#15 = VERTEX_POINT ( 'NONE', #6 ) ;
#16 = AXIS2_PLACEMENT_3D ( 'NONE', #137, #84, #102 ) ;
#17 = EDGE_CURVE ( 'NONE', #109, #132, #95, .T. ) ;
#18 = APPROVAL_PERSON_ORGANIZATION ( #2, #63, #38 ) ;
#19 = FACE_OUTER_BOUND ( 'NONE', #59, .T. ) ;
#20 = DIRECTION ( 'NONE',  ( 0.0000000000000000000, 0.0000000000000000000, 1.000000000000000000 ) ) ;
#21 = DIRECTION ( 'NONE',  ( -0.0000000000000000000, -0.0000000000000000000, -1.000000000000000000 ) ) ;
#22 = APPROVAL_STATUS ( 'not_yet_approved' ) ;
#23 = PERSON_AND_ORGANIZATION ( #127, #47 ) ;
#24 = ORIENTED_EDGE ( 'NONE', *, *, #26, .F. ) ;
#25 = PERSON_AND_ORGANIZATION_ROLE ( 'classification_officer' ) ;
#26 = EDGE_CURVE ( 'NONE', #15, #43, #166, .T. ) ;
#27 =( GEOMETRIC_REPRESENTATION_CONTEXT ( 3 ) GLOBAL_UNCERTAINTY_ASSIGNED_CONTEXT ( ( #99 ) ) GLOBAL_UNIT_ASSIGNED_CONTEXT ( ( #171, #10, #76 ) ) REPRESENTATION_CONTEXT ( 'NONE', 'WORKASPACE' ) );
#28 = AXIS2_PLACEMENT_3D ( 'NONE', #85, #20, #51 ) ;
#29 = LOCAL_TIME ( 10, 5, 8.000000000000000000, #113 ) ;
#30 = FACE_OUTER_BOUND ( 'NONE', #65, .T. ) ;
#31 = CYLINDRICAL_SURFACE ( 'NONE', #111, 25.00000000000000000 ) ;
#32 = CC_DESIGN_PERSON_AND_ORGANIZATION_ASSIGNMENT ( #23, #61, ( #100 ) ) ;
#33 = SHAPE_DEFINITION_REPRESENTATION ( #144, #55 ) ;
#34 = ORIENTED_EDGE ( 'NONE', *, *, #124, .T. ) ;
#35 = DATE_TIME_ROLE ( 'creation_date' ) ;
#36 = DIRECTION ( 'NONE',  ( 0.0000000000000000000, 0.0000000000000000000, 1.000000000000000000 ) ) ;
#37 = ADVANCED_FACE ( 'NONE', ( #30 ), #31, .T. ) ;
#38 = APPROVAL_ROLE ( '' ) ;
#39 = DATE_AND_TIME ( #94, #74 ) ;
#40 = ORIENTED_EDGE ( 'NONE', *, *, #131, .T. ) ;
#41 = SECURITY_CLASSIFICATION ( '', '', #139 ) ;
#42 = PERSON_AND_ORGANIZATION ( #127, #47 ) ;
#43 = VERTEX_POINT ( 'NONE', #88 ) ;
#44 = PRODUCT_DEFINITION ( 'UNKNOWN', '', #123, #48 ) ;
#45 = DIRECTION ( 'NONE',  ( 0.0000000000000000000, 0.0000000000000000000, 1.000000000000000000 ) ) ;
#46 = CALENDAR_DATE ( 2017, 31, 10 ) ;
#47 = ORGANIZATION ( 'UNSPECIFIED', 'UNSPECIFIED', '' ) ;
#48 = DESIGN_CONTEXT ( 'detailed design', #54, 'design' ) ;
#49 = COORDINATED_UNIVERSAL_TIME_OFFSET ( 5, 0, .BEHIND. ) ;
#50 = DIRECTION ( 'NONE',  ( 1.000000000000000000, 0.0000000000000000000, -0.0000000000000000000 ) ) ;
#51 = DIRECTION ( 'NONE',  ( 1.000000000000000000, 0.0000000000000000000, 0.0000000000000000000 ) ) ;
#52 = CC_DESIGN_PERSON_AND_ORGANIZATION_ASSIGNMENT ( #175, #25, ( #41 ) ) ;
#53 = ADVANCED_FACE ( 'NONE', ( #19 ), #118, .T. ) ;
#54 = APPLICATION_CONTEXT ( 'configuration controlled 3d designs of mechanical parts and assemblies' ) ;
#55 = ADVANCED_BREP_SHAPE_REPRESENTATION ( 'Web Model 36657MX_36657', ( #4, #28 ), #27 ) ;
#56 = LOCAL_TIME ( 10, 5, 8.000000000000000000, #49 ) ;
#57 = CARTESIAN_POINT ( 'NONE',  ( 0.0000000000000000000, 0.0000000000000000000, -3.000000000000000000 ) ) ;
#58 = CC_DESIGN_DATE_AND_TIME_ASSIGNMENT ( #39, #142, ( #41 ) ) ;
#59 = EDGE_LOOP ( 'NONE', ( #101, #126 ) ) ;
#60 = DIRECTION ( 'NONE',  ( 1.000000000000000000, 0.0000000000000000000, -0.0000000000000000000 ) ) ;
#61 = PERSON_AND_ORGANIZATION_ROLE ( 'design_owner' ) ;
#62 = CARTESIAN_POINT ( 'NONE',  ( -25.00000000000000000, 0.0000000000000000000, -3.000000000000000000 ) ) ;
#63 = APPROVAL ( #161, 'UNSPECIFIED' ) ;
#64 = CALENDAR_DATE ( 2017, 31, 10 ) ;
#65 = EDGE_LOOP ( 'NONE', ( #120, #24, #168, #40 ) ) ;
#66 = APPROVAL_ROLE ( '' ) ;
#67 = DIRECTION ( 'NONE',  ( 1.000000000000000000, 0.0000000000000000000, 0.0000000000000000000 ) ) ;
#68 = ORIENTED_EDGE ( 'NONE', *, *, #8, .F. ) ;
#69 = APPROVAL ( #22, 'UNSPECIFIED' ) ;
#70 = FACE_OUTER_BOUND ( 'NONE', #114, .T. ) ;
#71 = CALENDAR_DATE ( 2017, 31, 10 ) ;
#72 = CC_DESIGN_DATE_AND_TIME_ASSIGNMENT ( #129, #35, ( #44 ) ) ;
#73 = CC_DESIGN_APPROVAL ( #63, ( #44 ) ) ;
#74 = LOCAL_TIME ( 10, 5, 8.000000000000000000, #140 ) ;
#75 = DIRECTION ( 'NONE',  ( 0.0000000000000000000, 0.0000000000000000000, 1.000000000000000000 ) ) ;
#76 =( NAMED_UNIT ( * ) SI_UNIT ( $, .STERADIAN. ) SOLID_ANGLE_UNIT ( ) );
#77 = COORDINATED_UNIVERSAL_TIME_OFFSET ( 5, 0, .BEHIND. ) ;
#78 = CALENDAR_DATE ( 2017, 31, 10 ) ;
#79 = CC_DESIGN_PERSON_AND_ORGANIZATION_ASSIGNMENT ( #9, #156, ( #123 ) ) ;
#80 = APPROVAL ( #106, 'UNSPECIFIED' ) ;
#81 = DIRECTION ( 'NONE',  ( -1.000000000000000000, 0.0000000000000000000, 0.0000000000000000000 ) ) ;
#82 = LINE ( 'NONE', #104, #148 ) ;
#83 = ORIENTED_EDGE ( 'NONE', *, *, #17, .F. ) ;
#84 = DIRECTION ( 'NONE',  ( 0.0000000000000000000, 0.0000000000000000000, 1.000000000000000000 ) ) ;
#85 = CARTESIAN_POINT ( 'NONE',  ( 0.0000000000000000000, 0.0000000000000000000, 0.0000000000000000000 ) ) ;
#86 = PERSON_AND_ORGANIZATION_ROLE ( 'creator' ) ;
#87 = EDGE_CURVE ( 'NONE', #15, #132, #146, .T. ) ;
#88 = CARTESIAN_POINT ( 'NONE',  ( 25.00000000000000000, 3.061616997868383000E-015, 3.000000000000000000 ) ) ;
#89 = APPROVAL_DATE_TIME ( #122, #69 ) ;
#90 = ORIENTED_EDGE ( 'NONE', *, *, #87, .F. ) ;
#91 = MECHANICAL_CONTEXT ( 'NONE', #117, 'mechanical' ) ;
#92 = ADVANCED_FACE ( 'NONE', ( #70 ), #107, .T. ) ;
#93 = AXIS2_PLACEMENT_3D ( 'NONE', #141, #143, #67 ) ;
#94 = CALENDAR_DATE ( 2017, 31, 10 ) ;
#95 = CIRCLE ( 'NONE', #165, 25.00000000000000000 ) ;
#96 = CARTESIAN_POINT ( 'NONE',  ( 0.0000000000000000000, 0.0000000000000000000, 3.000000000000000000 ) ) ;
#97 = APPROVAL_DATE_TIME ( #14, #63 ) ;
#98 = ORIENTED_EDGE ( 'NONE', *, *, #17, .T. ) ;
#99 = UNCERTAINTY_MEASURE_WITH_UNIT (LENGTH_MEASURE( 1.000000000000000100E-005 ), #171, 'distance_accuracy_value', 'NONE');
#100 = PRODUCT ( 'Web Model 36657MX_36657', 'Web Model 36657MX_36657', '', ( #91 ) ) ;
#101 = ORIENTED_EDGE ( 'NONE', *, *, #26, .T. ) ;
#102 = DIRECTION ( 'NONE',  ( 1.000000000000000000, 0.0000000000000000000, 0.0000000000000000000 ) ) ;
#103 = CARTESIAN_POINT ( 'NONE',  ( -25.00000000000000000, 0.0000000000000000000, 3.000000000000000000 ) ) ;
#104 = CARTESIAN_POINT ( 'NONE',  ( 25.00000000000000000, 3.061616997868383000E-015, 3.000000000000000000 ) ) ;
#105 = LOCAL_TIME ( 10, 5, 8.000000000000000000, #77 ) ;
#106 = APPROVAL_STATUS ( 'not_yet_approved' ) ;
#107 = CYLINDRICAL_SURFACE ( 'NONE', #167, 25.00000000000000000 ) ;
#108 = PERSON_AND_ORGANIZATION ( #127, #47 ) ;
#109 = VERTEX_POINT ( 'NONE', #173 ) ;
#110 = CARTESIAN_POINT ( 'NONE',  ( 0.0000000000000000000, 0.0000000000000000000, 3.000000000000000000 ) ) ;
#111 = AXIS2_PLACEMENT_3D ( 'NONE', #169, #149, #81 ) ;
#112 = CIRCLE ( 'NONE', #93, 25.00000000000000000 ) ;
#113 = COORDINATED_UNIVERSAL_TIME_OFFSET ( 5, 0, .BEHIND. ) ;
#114 = EDGE_LOOP ( 'NONE', ( #68, #34, #98, #90 ) ) ;
#115 = CC_DESIGN_APPROVAL ( #69, ( #41 ) ) ;
#116 = CARTESIAN_POINT ( 'NONE',  ( 0.0000000000000000000, 0.0000000000000000000, -3.000000000000000000 ) ) ;
#117 = APPLICATION_CONTEXT ( 'configuration controlled 3d designs of mechanical parts and assemblies' ) ;
#118 = PLANE ( 'NONE',  #133 ) ;
#119 = VECTOR ( 'NONE', #128, 1000.000000000000000 ) ;
#120 = ORIENTED_EDGE ( 'NONE', *, *, #124, .F. ) ;
#121 = APPLICATION_PROTOCOL_DEFINITION ( 'international standard', 'config_control_design', 1994, #117 ) ;
#122 = DATE_AND_TIME ( #71, #163 ) ;
#123 = PRODUCT_DEFINITION_FORMATION_WITH_SPECIFIED_SOURCE ( 'ANY', '', #100, .NOT_KNOWN. ) ;
#124 = EDGE_CURVE ( 'NONE', #43, #109, #82, .T. ) ;
#125 = APPROVAL_DATE_TIME ( #7, #80 ) ;
#126 = ORIENTED_EDGE ( 'NONE', *, *, #8, .T. ) ;
#127 = PERSON ( 'UNSPECIFIED', 'UNSPECIFIED', 'UNSPECIFIED', ('UNSPECIFIED'), ('UNSPECIFIED'), ('UNSPECIFIED') ) ;
#128 = DIRECTION ( 'NONE',  ( -0.0000000000000000000, -0.0000000000000000000, -1.000000000000000000 ) ) ;
#129 = DATE_AND_TIME ( #46, #29 ) ;
#130 = DIRECTION ( 'NONE',  ( 0.0000000000000000000, 0.0000000000000000000, 1.000000000000000000 ) ) ;
#131 = EDGE_CURVE ( 'NONE', #132, #109, #112, .T. ) ;
#132 = VERTEX_POINT ( 'NONE', #62 ) ;
#133 = AXIS2_PLACEMENT_3D ( 'NONE', #172, #36, #50 ) ;
#134 = APPROVAL_PERSON_ORGANIZATION ( #108, #80, #13 ) ;
#135 = CIRCLE ( 'NONE', #16, 25.00000000000000000 ) ;
#136 = COORDINATED_UNIVERSAL_TIME_OFFSET ( 5, 0, .BEHIND. ) ;
#137 = CARTESIAN_POINT ( 'NONE',  ( 0.0000000000000000000, 0.0000000000000000000, 3.000000000000000000 ) ) ;
#138 = CC_DESIGN_PERSON_AND_ORGANIZATION_ASSIGNMENT ( #145, #11, ( #44 ) ) ;
#139 = SECURITY_CLASSIFICATION_LEVEL ( 'unclassified' ) ;
#140 = COORDINATED_UNIVERSAL_TIME_OFFSET ( 5, 0, .BEHIND. ) ;
#141 = CARTESIAN_POINT ( 'NONE',  ( 0.0000000000000000000, 0.0000000000000000000, -3.000000000000000000 ) ) ;
#142 = DATE_TIME_ROLE ( 'classification_date' ) ;
#143 = DIRECTION ( 'NONE',  ( 0.0000000000000000000, 0.0000000000000000000, 1.000000000000000000 ) ) ;
#144 = PRODUCT_DEFINITION_SHAPE ( 'NONE', 'NONE',  #44 ) ;
#145 = PERSON_AND_ORGANIZATION ( #127, #47 ) ;
#146 = LINE ( 'NONE', #103, #119 ) ;
#147 = CC_DESIGN_SECURITY_CLASSIFICATION ( #41, ( #123 ) ) ;
#148 = VECTOR ( 'NONE', #21, 1000.000000000000000 ) ;
#149 = DIRECTION ( 'NONE',  ( -0.0000000000000000000, -0.0000000000000000000, -1.000000000000000000 ) ) ;
#150 = CC_DESIGN_APPROVAL ( #80, ( #123 ) ) ;
#151 = DIRECTION ( 'NONE',  ( 1.000000000000000000, 0.0000000000000000000, 0.0000000000000000000 ) ) ;
#152 = DIRECTION ( 'NONE',  ( 1.000000000000000000, 0.0000000000000000000, 0.0000000000000000000 ) ) ;
#153 = FACE_OUTER_BOUND ( 'NONE', #3, .T. ) ;
#154 = DIRECTION ( 'NONE',  ( -0.0000000000000000000, -0.0000000000000000000, -1.000000000000000000 ) ) ;
#155 = APPROVAL_PERSON_ORGANIZATION ( #5, #69, #66 ) ;
#156 = PERSON_AND_ORGANIZATION_ROLE ( 'design_supplier' ) ;
#157 = PRODUCT_RELATED_PRODUCT_CATEGORY ( 'detail', '', ( #100 ) ) ;
#158 = PLANE ( 'NONE',  #1 ) ;
#159 = ADVANCED_FACE ( 'NONE', ( #153 ), #158, .F. ) ;
#160 = CLOSED_SHELL ( 'NONE', ( #92, #37, #53, #159 ) ) ;
#161 = APPROVAL_STATUS ( 'not_yet_approved' ) ;
#162 = CC_DESIGN_PERSON_AND_ORGANIZATION_ASSIGNMENT ( #42, #86, ( #123 ) ) ;
#163 = LOCAL_TIME ( 10, 5, 8.000000000000000000, #136 ) ;
#164 = ORIENTED_EDGE ( 'NONE', *, *, #131, .F. ) ;
#165 = AXIS2_PLACEMENT_3D ( 'NONE', #57, #75, #151 ) ;
#166 = CIRCLE ( 'NONE', #170, 25.00000000000000000 ) ;
#167 = AXIS2_PLACEMENT_3D ( 'NONE', #110, #154, #12 ) ;
#168 = ORIENTED_EDGE ( 'NONE', *, *, #87, .T. ) ;
#169 = CARTESIAN_POINT ( 'NONE',  ( 0.0000000000000000000, 0.0000000000000000000, 3.000000000000000000 ) ) ;
#170 = AXIS2_PLACEMENT_3D ( 'NONE', #96, #45, #152 ) ;
#171 =( LENGTH_UNIT ( ) NAMED_UNIT ( * ) SI_UNIT ( .MILLI., .METRE. ) );
#172 = CARTESIAN_POINT ( 'NONE',  ( 0.0000000000000000000, 0.0000000000000000000, 3.000000000000000000 ) ) ;
#173 = CARTESIAN_POINT ( 'NONE',  ( 25.00000000000000000, 3.061616997868383000E-015, -3.000000000000000000 ) ) ;
#174 = APPLICATION_PROTOCOL_DEFINITION ( 'international standard', 'config_control_design', 1994, #54 ) ;
#175 = PERSON_AND_ORGANIZATION ( #127, #47 ) ;
ENDSEC;
END-ISO-10303-21;
