ISO-10303-21;
HEADER;
FILE_DESCRIPTION (( 'STEP AP203' ),
    '1' );
FILE_NAME ('Web Model 43367_21004.step',
    '2022-03-16T13:57:57',
    ( '' ),
    ( '' ),
    'SwSTEP 2.0',
    'SolidWorks 2021',
    '' );
FILE_SCHEMA (( 'CONFIG_CONTROL_DESIGN' ));
ENDSEC;

DATA;
#1 = ORIENTED_EDGE ( 'NONE', *, *, #20, .T. ) ;
#2 = PERSON_AND_ORGANIZATION_ROLE ( 'creator' ) ;
#3 = CARTESIAN_POINT ( 'NONE',  ( 0.000000000000000000, 0.000000000000000000, 1.000000000000000000 ) ) ;
#4 = APPLICATION_CONTEXT ( 'configuration controlled 3d designs of mechanical parts and assemblies' ) ;
#5 = COORDINATED_UNIVERSAL_TIME_OFFSET ( 5, 0, .BEHIND. ) ;
#6 = LOCAL_TIME ( 9, 57, 57.00000000000000000, #12 ) ;
#7 = PLANE ( 'NONE',  #47 ) ;
#8 = ADVANCED_FACE ( 'NONE', ( #65 ), #54, .T. ) ;
#9 = CALENDAR_DATE ( 2022, 16, 3 ) ;
#10 = APPROVAL_ROLE ( '' ) ;
#11 = ORIENTED_EDGE ( 'NONE', *, *, #28, .F. ) ;
#12 = COORDINATED_UNIVERSAL_TIME_OFFSET ( 5, 0, .BEHIND. ) ;
#13 = ORIENTED_EDGE ( 'NONE', *, *, #67, .F. ) ;
#14 = DIRECTION ( 'NONE',  ( 1.000000000000000000, 0.000000000000000000, -0.000000000000000000 ) ) ;
#15 = APPLICATION_PROTOCOL_DEFINITION ( 'international standard', 'config_control_design', 1994, #121 ) ;
#16 = DIRECTION ( 'NONE',  ( -1.000000000000000000, 0.000000000000000000, 0.000000000000000000 ) ) ;
#17 =( LENGTH_UNIT ( ) NAMED_UNIT ( * ) SI_UNIT ( .MILLI., .METRE. ) );
#18 = CALENDAR_DATE ( 2022, 16, 3 ) ;
#19 = CIRCLE ( 'NONE', #86, 7.500000000000000000 ) ;
#20 = EDGE_CURVE ( 'NONE', #99, #40, #63, .T. ) ;
#21 = CC_DESIGN_APPROVAL ( #72, ( #70 ) ) ;
#22 = PERSON_AND_ORGANIZATION_ROLE ( 'design_supplier' ) ;
#23 = AXIS2_PLACEMENT_3D ( 'NONE', #61, #60, #74 ) ;
#24 = PERSON_AND_ORGANIZATION_ROLE ( 'creator' ) ;
#25 = CYLINDRICAL_SURFACE ( 'NONE', #30, 7.500000000000000000 ) ;
#26 = APPROVAL_STATUS ( 'not_yet_approved' ) ;
#27 = ORIENTED_EDGE ( 'NONE', *, *, #20, .F. ) ;
#28 = EDGE_CURVE ( 'NONE', #152, #139, #59, .T. ) ;
#29 =( NAMED_UNIT ( * ) SI_UNIT ( $, .STERADIAN. ) SOLID_ANGLE_UNIT ( ) );
#30 = AXIS2_PLACEMENT_3D ( 'NONE', #83, #145, #16 ) ;
#31 = DIRECTION ( 'NONE',  ( 1.000000000000000000, 0.000000000000000000, 0.000000000000000000 ) ) ;
#32 = AXIS2_PLACEMENT_3D ( 'NONE', #113, #46, #91 ) ;
#33 = ADVANCED_FACE ( 'NONE', ( #102 ), #25, .T. ) ;
#34 = APPROVAL_DATE_TIME ( #128, #167 ) ;
#35 = PERSON_AND_ORGANIZATION ( #100, #90 ) ;
#36 = APPROVAL_ROLE ( '' ) ;
#37 = CARTESIAN_POINT ( 'NONE',  ( 0.000000000000000000, 0.000000000000000000, 0.000000000000000000 ) ) ;
#38 = DATE_AND_TIME ( #9, #141 ) ;
#39 = CC_DESIGN_PERSON_AND_ORGANIZATION_ASSIGNMENT ( #80, #69, ( #53 ) ) ;
#40 = VERTEX_POINT ( 'NONE', #118 ) ;
#41 = LOCAL_TIME ( 9, 57, 57.00000000000000000, #133 ) ;
#42 = DIRECTION ( 'NONE',  ( 1.000000000000000000, 0.000000000000000000, 0.000000000000000000 ) ) ;
#43 = CC_DESIGN_SECURITY_CLASSIFICATION ( #53, ( #70 ) ) ;
#44 = ORIENTED_EDGE ( 'NONE', *, *, #28, .T. ) ;
#45 = DIRECTION ( 'NONE',  ( -0.000000000000000000, -0.000000000000000000, -1.000000000000000000 ) ) ;
#46 = DIRECTION ( 'NONE',  ( 0.000000000000000000, 0.000000000000000000, 1.000000000000000000 ) ) ;
#47 = AXIS2_PLACEMENT_3D ( 'NONE', #123, #120, #129 ) ;
#48 = FACE_OUTER_BOUND ( 'NONE', #98, .T. ) ;
#49 =( NAMED_UNIT ( * ) PLANE_ANGLE_UNIT ( ) SI_UNIT ( $, .RADIAN. ) );
#50 = APPROVAL_PERSON_ORGANIZATION ( #35, #172, #36 ) ;
#51 = ORIENTED_EDGE ( 'NONE', *, *, #155, .F. ) ;
#52 = DATE_TIME_ROLE ( 'creation_date' ) ;
#53 = SECURITY_CLASSIFICATION ( '', '', #84 ) ;
#54 = CYLINDRICAL_SURFACE ( 'NONE', #103, 7.500000000000000000 ) ;
#55 = ORIENTED_EDGE ( 'NONE', *, *, #112, .T. ) ;
#56 = PRODUCT_DEFINITION ( 'UNKNOWN', '', #70, #75 ) ;
#57 = LINE ( 'NONE', #92, #85 ) ;
#58 = DIRECTION ( 'NONE',  ( 0.000000000000000000, 0.000000000000000000, 1.000000000000000000 ) ) ;
#59 = CIRCLE ( 'NONE', #131, 7.500000000000000000 ) ;
#60 = DIRECTION ( 'NONE',  ( 0.000000000000000000, 0.000000000000000000, 1.000000000000000000 ) ) ;
#61 = CARTESIAN_POINT ( 'NONE',  ( 0.000000000000000000, 0.000000000000000000, 1.000000000000000000 ) ) ;
#62 = PERSON_AND_ORGANIZATION ( #100, #90 ) ;
#63 = CIRCLE ( 'NONE', #140, 7.500000000000000000 ) ;
#64 = APPROVAL_DATE_TIME ( #147, #172 ) ;
#65 = FACE_OUTER_BOUND ( 'NONE', #175, .T. ) ;
#66 = ADVANCED_BREP_SHAPE_REPRESENTATION ( 'Web Model 43367_21004', ( #174, #32 ), #117 ) ;
#67 = EDGE_CURVE ( 'NONE', #139, #152, #109, .T. ) ;
#68 = ORIENTED_EDGE ( 'NONE', *, *, #112, .F. ) ;
#69 = PERSON_AND_ORGANIZATION_ROLE ( 'classification_officer' ) ;
#70 = PRODUCT_DEFINITION_FORMATION_WITH_SPECIFIED_SOURCE ( 'ANY', '', #146, .NOT_KNOWN. ) ;
#71 = DIRECTION ( 'NONE',  ( -0.000000000000000000, -0.000000000000000000, -1.000000000000000000 ) ) ;
#72 = APPROVAL ( #26, 'UNSPECIFIED' ) ;
#73 = APPROVAL_ROLE ( '' ) ;
#74 = DIRECTION ( 'NONE',  ( 1.000000000000000000, 0.000000000000000000, 0.000000000000000000 ) ) ;
#75 = DESIGN_CONTEXT ( 'detailed design', #4, 'design' ) ;
#76 = CARTESIAN_POINT ( 'NONE',  ( 7.500000000000000000, 9.184850993605147944E-16, 1.000000000000000000 ) ) ;
#77 = PERSON_AND_ORGANIZATION ( #100, #90 ) ;
#78 = DIRECTION ( 'NONE',  ( -0.000000000000000000, -0.000000000000000000, -1.000000000000000000 ) ) ;
#79 = PERSON_AND_ORGANIZATION ( #100, #90 ) ;
#80 = PERSON_AND_ORGANIZATION ( #100, #90 ) ;
#81 = APPROVAL_PERSON_ORGANIZATION ( #88, #167, #73 ) ;
#82 = CALENDAR_DATE ( 2022, 16, 3 ) ;
#83 = CARTESIAN_POINT ( 'NONE',  ( 0.000000000000000000, 0.000000000000000000, 1.000000000000000000 ) ) ;
#84 = SECURITY_CLASSIFICATION_LEVEL ( 'unclassified' ) ;
#85 = VECTOR ( 'NONE', #45, 1000.000000000000000 ) ;
#86 = AXIS2_PLACEMENT_3D ( 'NONE', #106, #157, #31 ) ;
#87 = CC_DESIGN_PERSON_AND_ORGANIZATION_ASSIGNMENT ( #79, #22, ( #70 ) ) ;
#88 = PERSON_AND_ORGANIZATION ( #100, #90 ) ;
#89 = MECHANICAL_CONTEXT ( 'NONE', #121, 'mechanical' ) ;
#90 = ORGANIZATION ( 'UNSPECIFIED', 'UNSPECIFIED', '' ) ;
#91 = DIRECTION ( 'NONE',  ( 1.000000000000000000, 0.000000000000000000, 0.000000000000000000 ) ) ;
#92 = CARTESIAN_POINT ( 'NONE',  ( -7.500000000000000000, 0.000000000000000000, 1.000000000000000000 ) ) ;
#93 = CC_DESIGN_PERSON_AND_ORGANIZATION_ASSIGNMENT ( #77, #158, ( #146 ) ) ;
#94 = APPROVAL_DATE_TIME ( #160, #72 ) ;
#95 = COORDINATED_UNIVERSAL_TIME_OFFSET ( 5, 0, .BEHIND. ) ;
#96 = DIRECTION ( 'NONE',  ( 1.000000000000000000, 0.000000000000000000, 0.000000000000000000 ) ) ;
#97 = PERSON_AND_ORGANIZATION ( #100, #90 ) ;
#98 = EDGE_LOOP ( 'NONE', ( #124, #44 ) ) ;
#99 = VERTEX_POINT ( 'NONE', #108 ) ;
#100 = PERSON ( 'UNSPECIFIED', 'UNSPECIFIED', 'UNSPECIFIED', ('UNSPECIFIED'), ('UNSPECIFIED'), ('UNSPECIFIED') ) ;
#101 = CC_DESIGN_PERSON_AND_ORGANIZATION_ASSIGNMENT ( #62, #24, ( #70 ) ) ;
#102 = FACE_OUTER_BOUND ( 'NONE', #115, .T. ) ;
#103 = AXIS2_PLACEMENT_3D ( 'NONE', #154, #71, #163 ) ;
#104 = CC_DESIGN_APPROVAL ( #167, ( #56 ) ) ;
#105 = DIRECTION ( 'NONE',  ( 0.000000000000000000, 0.000000000000000000, 1.000000000000000000 ) ) ;
#106 = CARTESIAN_POINT ( 'NONE',  ( 0.000000000000000000, 0.000000000000000000, 0.000000000000000000 ) ) ;
#107 = UNCERTAINTY_MEASURE_WITH_UNIT (LENGTH_MEASURE( 1.000000000000000082E-05 ), #17, 'distance_accuracy_value', 'NONE');
#108 = CARTESIAN_POINT ( 'NONE',  ( -7.500000000000000000, 0.000000000000000000, 0.000000000000000000 ) ) ;
#109 = CIRCLE ( 'NONE', #23, 7.500000000000000000 ) ;
#110 = CC_DESIGN_APPROVAL ( #172, ( #53 ) ) ;
#111 = PLANE ( 'NONE',  #138 ) ;
#112 = EDGE_CURVE ( 'NONE', #139, #99, #57, .T. ) ;
#113 = CARTESIAN_POINT ( 'NONE',  ( 0.000000000000000000, 0.000000000000000000, 0.000000000000000000 ) ) ;
#114 = CALENDAR_DATE ( 2022, 16, 3 ) ;
#115 = EDGE_LOOP ( 'NONE', ( #11, #168, #137, #68 ) ) ;
#116 = EDGE_LOOP ( 'NONE', ( #27, #165 ) ) ;
#117 =( GEOMETRIC_REPRESENTATION_CONTEXT ( 3 ) GLOBAL_UNCERTAINTY_ASSIGNED_CONTEXT ( ( #107 ) ) GLOBAL_UNIT_ASSIGNED_CONTEXT ( ( #17, #49, #29 ) ) REPRESENTATION_CONTEXT ( 'NONE', 'WORKASPACE' ) );
#118 = CARTESIAN_POINT ( 'NONE',  ( 7.500000000000000000, 9.184850993605147944E-16, 0.000000000000000000 ) ) ;
#119 = CLOSED_SHELL ( 'NONE', ( #33, #8, #143, #136 ) ) ;
#120 = DIRECTION ( 'NONE',  ( 0.000000000000000000, 0.000000000000000000, 1.000000000000000000 ) ) ;
#121 = APPLICATION_CONTEXT ( 'configuration controlled 3d designs of mechanical parts and assemblies' ) ;
#122 = CC_DESIGN_PERSON_AND_ORGANIZATION_ASSIGNMENT ( #132, #2, ( #56 ) ) ;
#123 = CARTESIAN_POINT ( 'NONE',  ( 0.000000000000000000, 0.000000000000000000, 0.000000000000000000 ) ) ;
#124 = ORIENTED_EDGE ( 'NONE', *, *, #67, .T. ) ;
#125 = DATE_AND_TIME ( #82, #134 ) ;
#126 = CC_DESIGN_DATE_AND_TIME_ASSIGNMENT ( #38, #52, ( #56 ) ) ;
#127 = PRODUCT_DEFINITION_SHAPE ( 'NONE', 'NONE',  #56 ) ;
#128 = DATE_AND_TIME ( #18, #149 ) ;
#129 = DIRECTION ( 'NONE',  ( 1.000000000000000000, 0.000000000000000000, -0.000000000000000000 ) ) ;
#130 = APPROVAL_STATUS ( 'not_yet_approved' ) ;
#131 = AXIS2_PLACEMENT_3D ( 'NONE', #150, #166, #42 ) ;
#132 = PERSON_AND_ORGANIZATION ( #100, #90 ) ;
#133 = COORDINATED_UNIVERSAL_TIME_OFFSET ( 5, 0, .BEHIND. ) ;
#134 = LOCAL_TIME ( 9, 57, 57.00000000000000000, #161 ) ;
#135 = SHAPE_DEFINITION_REPRESENTATION ( #127, #66 ) ;
#136 = ADVANCED_FACE ( 'NONE', ( #169 ), #7, .F. ) ;
#137 = ORIENTED_EDGE ( 'NONE', *, *, #151, .T. ) ;
#138 = AXIS2_PLACEMENT_3D ( 'NONE', #3, #58, #14 ) ;
#139 = VERTEX_POINT ( 'NONE', #142 ) ;
#140 = AXIS2_PLACEMENT_3D ( 'NONE', #37, #105, #96 ) ;
#141 = LOCAL_TIME ( 9, 57, 57.00000000000000000, #95 ) ;
#142 = CARTESIAN_POINT ( 'NONE',  ( -7.500000000000000000, 0.000000000000000000, 1.000000000000000000 ) ) ;
#143 = ADVANCED_FACE ( 'NONE', ( #48 ), #111, .T. ) ;
#144 = PRODUCT_RELATED_PRODUCT_CATEGORY ( 'detail', '', ( #146 ) ) ;
#145 = DIRECTION ( 'NONE',  ( -0.000000000000000000, -0.000000000000000000, -1.000000000000000000 ) ) ;
#146 = PRODUCT ( 'Web Model 43367_21004', 'Web Model 43367_21004', '', ( #89 ) ) ;
#147 = DATE_AND_TIME ( #148, #41 ) ;
#148 = CALENDAR_DATE ( 2022, 16, 3 ) ;
#149 = LOCAL_TIME ( 9, 57, 57.00000000000000000, #5 ) ;
#150 = CARTESIAN_POINT ( 'NONE',  ( 0.000000000000000000, 0.000000000000000000, 1.000000000000000000 ) ) ;
#151 = EDGE_CURVE ( 'NONE', #40, #99, #19, .T. ) ;
#152 = VERTEX_POINT ( 'NONE', #171 ) ;
#153 = VECTOR ( 'NONE', #78, 1000.000000000000000 ) ;
#154 = CARTESIAN_POINT ( 'NONE',  ( 0.000000000000000000, 0.000000000000000000, 1.000000000000000000 ) ) ;
#155 = EDGE_CURVE ( 'NONE', #152, #40, #156, .T. ) ;
#156 = LINE ( 'NONE', #76, #153 ) ;
#157 = DIRECTION ( 'NONE',  ( 0.000000000000000000, 0.000000000000000000, 1.000000000000000000 ) ) ;
#158 = PERSON_AND_ORGANIZATION_ROLE ( 'design_owner' ) ;
#159 = DATE_TIME_ROLE ( 'classification_date' ) ;
#160 = DATE_AND_TIME ( #114, #6 ) ;
#161 = COORDINATED_UNIVERSAL_TIME_OFFSET ( 5, 0, .BEHIND. ) ;
#162 = CC_DESIGN_DATE_AND_TIME_ASSIGNMENT ( #125, #159, ( #53 ) ) ;
#163 = DIRECTION ( 'NONE',  ( -1.000000000000000000, 0.000000000000000000, 0.000000000000000000 ) ) ;
#164 = APPROVAL_PERSON_ORGANIZATION ( #97, #72, #10 ) ;
#165 = ORIENTED_EDGE ( 'NONE', *, *, #151, .F. ) ;
#166 = DIRECTION ( 'NONE',  ( 0.000000000000000000, 0.000000000000000000, 1.000000000000000000 ) ) ;
#167 = APPROVAL ( #130, 'UNSPECIFIED' ) ;
#168 = ORIENTED_EDGE ( 'NONE', *, *, #155, .T. ) ;
#169 = FACE_OUTER_BOUND ( 'NONE', #116, .T. ) ;
#170 = APPLICATION_PROTOCOL_DEFINITION ( 'international standard', 'config_control_design', 1994, #4 ) ;
#171 = CARTESIAN_POINT ( 'NONE',  ( 7.500000000000000000, 9.184850993605147944E-16, 1.000000000000000000 ) ) ;
#172 = APPROVAL ( #173, 'UNSPECIFIED' ) ;
#173 = APPROVAL_STATUS ( 'not_yet_approved' ) ;
#174 = MANIFOLD_SOLID_BREP ( 'Boss-Extrude1', #119 ) ;
#175 = EDGE_LOOP ( 'NONE', ( #51, #13, #55, #1 ) ) ;
ENDSEC;
END-ISO-10303-21;
