ISO-10303-21;
HEADER;
FILE_DESCRIPTION (( 'STEP AP203' ),
    '1' );
FILE_NAME ('Web Model 20017_20019.step',
    '2022-03-21T20:29:03',
    ( '' ),
    ( '' ),
    'SwSTEP 2.0',
    'SolidWorks 2021',
    '' );
FILE_SCHEMA (( 'CONFIG_CONTROL_DESIGN' ));
ENDSEC;

DATA;
#1 = CC_DESIGN_APPROVAL ( #159, ( #61 ) ) ;
#2 = LINE ( 'NONE', #92, #35 ) ;
#3 = DIRECTION ( 'NONE',  ( 1.000000000000000000, 0.000000000000000000, -0.000000000000000000 ) ) ;
#4 = DIRECTION ( 'NONE',  ( 0.000000000000000000, 0.000000000000000000, 1.000000000000000000 ) ) ;
#5 = DIRECTION ( 'NONE',  ( -1.000000000000000000, 0.000000000000000000, 0.000000000000000000 ) ) ;
#6 = VECTOR ( 'NONE', #18, 1000.000000000000000 ) ;
#7 = PERSON_AND_ORGANIZATION_ROLE ( 'design_supplier' ) ;
#8 = PRODUCT ( 'Web Model 20017_20019', 'Web Model 20017_20019', '', ( #165 ) ) ;
#9 = PERSON_AND_ORGANIZATION_ROLE ( 'design_owner' ) ;
#10 = APPROVAL_PERSON_ORGANIZATION ( #32, #159, #44 ) ;
#11 = ADVANCED_FACE ( 'NONE', ( #64 ), #119, .T. ) ;
#12 = CIRCLE ( 'NONE', #146, 12.69999999999999929 ) ;
#13 = EDGE_LOOP ( 'NONE', ( #58, #145 ) ) ;
#14 = MANIFOLD_SOLID_BREP ( 'Boss-Extrude1', #71 ) ;
#15 = CARTESIAN_POINT ( 'NONE',  ( 0.000000000000000000, 0.000000000000000000, 0.000000000000000000 ) ) ;
#16 = CARTESIAN_POINT ( 'NONE',  ( 0.000000000000000000, 0.000000000000000000, 0.000000000000000000 ) ) ;
#17 = EDGE_CURVE ( 'NONE', #163, #57, #98, .T. ) ;
#18 = DIRECTION ( 'NONE',  ( -0.000000000000000000, -0.000000000000000000, -1.000000000000000000 ) ) ;
#19 = COORDINATED_UNIVERSAL_TIME_OFFSET ( 5, 0, .BEHIND. ) ;
#20 = PERSON_AND_ORGANIZATION ( #122, #85 ) ;
#21 =( NAMED_UNIT ( * ) SI_UNIT ( $, .STERADIAN. ) SOLID_ANGLE_UNIT ( ) );
#22 = ADVANCED_BREP_SHAPE_REPRESENTATION ( 'Web Model 20017_20019', ( #14, #65 ), #161 ) ;
#23 = PERSON_AND_ORGANIZATION ( #122, #85 ) ;
#24 = CC_DESIGN_APPROVAL ( #116, ( #31 ) ) ;
#25 = AXIS2_PLACEMENT_3D ( 'NONE', #142, #144, #79 ) ;
#26 = DIRECTION ( 'NONE',  ( 1.000000000000000000, 0.000000000000000000, -0.000000000000000000 ) ) ;
#27 = PLANE ( 'NONE',  #121 ) ;
#28 = CARTESIAN_POINT ( 'NONE',  ( 0.000000000000000000, 0.000000000000000000, 2.000000000000000000 ) ) ;
#29 = CC_DESIGN_PERSON_AND_ORGANIZATION_ASSIGNMENT ( #123, #7, ( #31 ) ) ;
#30 = APPROVAL_DATE_TIME ( #164, #159 ) ;
#31 = PRODUCT_DEFINITION_FORMATION_WITH_SPECIFIED_SOURCE ( 'ANY', '', #8, .NOT_KNOWN. ) ;
#32 = PERSON_AND_ORGANIZATION ( #122, #85 ) ;
#33 = DATE_AND_TIME ( #81, #128 ) ;
#34 = CC_DESIGN_DATE_AND_TIME_ASSIGNMENT ( #49, #51, ( #117 ) ) ;
#35 = VECTOR ( 'NONE', #55, 1000.000000000000000 ) ;
#36 = ORIENTED_EDGE ( 'NONE', *, *, #120, .F. ) ;
#37 = CARTESIAN_POINT ( 'NONE',  ( 0.000000000000000000, 0.000000000000000000, 2.000000000000000000 ) ) ;
#38 = ORIENTED_EDGE ( 'NONE', *, *, #151, .F. ) ;
#39 = CYLINDRICAL_SURFACE ( 'NONE', #107, 12.69999999999999929 ) ;
#40 = CC_DESIGN_PERSON_AND_ORGANIZATION_ASSIGNMENT ( #60, #9, ( #8 ) ) ;
#41 = DIRECTION ( 'NONE',  ( 0.000000000000000000, 0.000000000000000000, 1.000000000000000000 ) ) ;
#42 = DIRECTION ( 'NONE',  ( 1.000000000000000000, 0.000000000000000000, 0.000000000000000000 ) ) ;
#43 = PERSON_AND_ORGANIZATION ( #122, #85 ) ;
#44 = APPROVAL_ROLE ( '' ) ;
#45 = LOCAL_TIME ( 16, 29, 3.000000000000000000, #130 ) ;
#46 = APPLICATION_PROTOCOL_DEFINITION ( 'international standard', 'config_control_design', 1994, #125 ) ;
#47 = SECURITY_CLASSIFICATION_LEVEL ( 'unclassified' ) ;
#48 = AXIS2_PLACEMENT_3D ( 'NONE', #37, #88, #26 ) ;
#49 = DATE_AND_TIME ( #173, #157 ) ;
#50 = CIRCLE ( 'NONE', #78, 12.69999999999999929 ) ;
#51 = DATE_TIME_ROLE ( 'classification_date' ) ;
#52 = ORIENTED_EDGE ( 'NONE', *, *, #120, .T. ) ;
#53 = PLANE ( 'NONE',  #48 ) ;
#54 = CC_DESIGN_APPROVAL ( #108, ( #117 ) ) ;
#55 = DIRECTION ( 'NONE',  ( -0.000000000000000000, -0.000000000000000000, -1.000000000000000000 ) ) ;
#56 = CC_DESIGN_DATE_AND_TIME_ASSIGNMENT ( #62, #170, ( #61 ) ) ;
#57 = VERTEX_POINT ( 'NONE', #160 ) ;
#58 = ORIENTED_EDGE ( 'NONE', *, *, #162, .F. ) ;
#59 =( LENGTH_UNIT ( ) NAMED_UNIT ( * ) SI_UNIT ( .MILLI., .METRE. ) );
#60 = PERSON_AND_ORGANIZATION ( #122, #85 ) ;
#61 = PRODUCT_DEFINITION ( 'UNKNOWN', '', #31, #99 ) ;
#62 = DATE_AND_TIME ( #95, #101 ) ;
#63 = DIRECTION ( 'NONE',  ( 0.000000000000000000, 0.000000000000000000, 1.000000000000000000 ) ) ;
#64 = FACE_OUTER_BOUND ( 'NONE', #80, .T. ) ;
#65 = AXIS2_PLACEMENT_3D ( 'NONE', #111, #84, #42 ) ;
#66 = ORIENTED_EDGE ( 'NONE', *, *, #134, .T. ) ;
#67 = CARTESIAN_POINT ( 'NONE',  ( 0.000000000000000000, 0.000000000000000000, 2.000000000000000000 ) ) ;
#68 = CALENDAR_DATE ( 2022, 21, 3 ) ;
#69 = PERSON_AND_ORGANIZATION_ROLE ( 'creator' ) ;
#70 = COORDINATED_UNIVERSAL_TIME_OFFSET ( 5, 0, .BEHIND. ) ;
#71 = CLOSED_SHELL ( 'NONE', ( #156, #11, #86, #72 ) ) ;
#72 = ADVANCED_FACE ( 'NONE', ( #135 ), #27, .F. ) ;
#73 = DATE_AND_TIME ( #158, #45 ) ;
#74 = APPROVAL_STATUS ( 'not_yet_approved' ) ;
#75 = SHAPE_DEFINITION_REPRESENTATION ( #155, #22 ) ;
#76 = CARTESIAN_POINT ( 'NONE',  ( 0.000000000000000000, 0.000000000000000000, 2.000000000000000000 ) ) ;
#77 = DIRECTION ( 'NONE',  ( 1.000000000000000000, 0.000000000000000000, 0.000000000000000000 ) ) ;
#78 = AXIS2_PLACEMENT_3D ( 'NONE', #67, #41, #77 ) ;
#79 = DIRECTION ( 'NONE',  ( -1.000000000000000000, 0.000000000000000000, 0.000000000000000000 ) ) ;
#80 = EDGE_LOOP ( 'NONE', ( #133, #36, #115, #174 ) ) ;
#81 = CALENDAR_DATE ( 2022, 21, 3 ) ;
#82 = APPROVAL_STATUS ( 'not_yet_approved' ) ;
#83 = PERSON_AND_ORGANIZATION ( #122, #85 ) ;
#84 = DIRECTION ( 'NONE',  ( 0.000000000000000000, 0.000000000000000000, 1.000000000000000000 ) ) ;
#85 = ORGANIZATION ( 'UNSPECIFIED', 'UNSPECIFIED', '' ) ;
#86 = ADVANCED_FACE ( 'NONE', ( #105 ), #53, .T. ) ;
#87 = ORIENTED_EDGE ( 'NONE', *, *, #17, .T. ) ;
#88 = DIRECTION ( 'NONE',  ( 0.000000000000000000, 0.000000000000000000, 1.000000000000000000 ) ) ;
#89 = EDGE_LOOP ( 'NONE', ( #52, #87 ) ) ;
#90 = AXIS2_PLACEMENT_3D ( 'NONE', #76, #100, #131 ) ;
#91 = ORIENTED_EDGE ( 'NONE', *, *, #17, .F. ) ;
#92 = CARTESIAN_POINT ( 'NONE',  ( -12.69999999999999929, 0.000000000000000000, 2.000000000000000000 ) ) ;
#93 = APPROVAL_STATUS ( 'not_yet_approved' ) ;
#94 = AXIS2_PLACEMENT_3D ( 'NONE', #149, #4, #96 ) ;
#95 = CALENDAR_DATE ( 2022, 21, 3 ) ;
#96 = DIRECTION ( 'NONE',  ( 1.000000000000000000, 0.000000000000000000, 0.000000000000000000 ) ) ;
#97 = PERSON_AND_ORGANIZATION_ROLE ( 'classification_officer' ) ;
#98 = CIRCLE ( 'NONE', #90, 12.69999999999999929 ) ;
#99 = DESIGN_CONTEXT ( 'detailed design', #125, 'design' ) ;
#100 = DIRECTION ( 'NONE',  ( 0.000000000000000000, 0.000000000000000000, 1.000000000000000000 ) ) ;
#101 = LOCAL_TIME ( 16, 29, 3.000000000000000000, #70 ) ;
#102 = DIRECTION ( 'NONE',  ( 0.000000000000000000, 0.000000000000000000, 1.000000000000000000 ) ) ;
#103 = EDGE_LOOP ( 'NONE', ( #91, #104, #66, #38 ) ) ;
#104 = ORIENTED_EDGE ( 'NONE', *, *, #169, .T. ) ;
#105 = FACE_OUTER_BOUND ( 'NONE', #89, .T. ) ;
#106 =( NAMED_UNIT ( * ) PLANE_ANGLE_UNIT ( ) SI_UNIT ( $, .RADIAN. ) );
#107 = AXIS2_PLACEMENT_3D ( 'NONE', #28, #148, #5 ) ;
#108 = APPROVAL ( #74, 'UNSPECIFIED' ) ;
#109 = PERSON_AND_ORGANIZATION_ROLE ( 'creator' ) ;
#110 = LOCAL_TIME ( 16, 29, 3.000000000000000000, #150 ) ;
#111 = CARTESIAN_POINT ( 'NONE',  ( 0.000000000000000000, 0.000000000000000000, 0.000000000000000000 ) ) ;
#112 = APPROVAL_DATE_TIME ( #73, #108 ) ;
#113 = APPLICATION_CONTEXT ( 'configuration controlled 3d designs of mechanical parts and assemblies' ) ;
#114 = VERTEX_POINT ( 'NONE', #132 ) ;
#115 = ORIENTED_EDGE ( 'NONE', *, *, #151, .T. ) ;
#116 = APPROVAL ( #93, 'UNSPECIFIED' ) ;
#117 = SECURITY_CLASSIFICATION ( '', '', #47 ) ;
#118 = DIRECTION ( 'NONE',  ( 1.000000000000000000, 0.000000000000000000, 0.000000000000000000 ) ) ;
#119 = CYLINDRICAL_SURFACE ( 'NONE', #25, 12.69999999999999929 ) ;
#120 = EDGE_CURVE ( 'NONE', #57, #163, #50, .T. ) ;
#121 = AXIS2_PLACEMENT_3D ( 'NONE', #16, #63, #3 ) ;
#122 = PERSON ( 'UNSPECIFIED', 'UNSPECIFIED', 'UNSPECIFIED', ('UNSPECIFIED'), ('UNSPECIFIED'), ('UNSPECIFIED') ) ;
#123 = PERSON_AND_ORGANIZATION ( #122, #85 ) ;
#124 = CARTESIAN_POINT ( 'NONE',  ( 12.69999999999999929, 1.555301434917138433E-15, 2.000000000000000000 ) ) ;
#125 = APPLICATION_CONTEXT ( 'configuration controlled 3d designs of mechanical parts and assemblies' ) ;
#126 = APPLICATION_PROTOCOL_DEFINITION ( 'international standard', 'config_control_design', 1994, #113 ) ;
#127 = CC_DESIGN_PERSON_AND_ORGANIZATION_ASSIGNMENT ( #83, #69, ( #31 ) ) ;
#128 = LOCAL_TIME ( 16, 29, 3.000000000000000000, #19 ) ;
#129 = CC_DESIGN_PERSON_AND_ORGANIZATION_ASSIGNMENT ( #20, #97, ( #117 ) ) ;
#130 = COORDINATED_UNIVERSAL_TIME_OFFSET ( 5, 0, .BEHIND. ) ;
#131 = DIRECTION ( 'NONE',  ( 1.000000000000000000, 0.000000000000000000, 0.000000000000000000 ) ) ;
#132 = CARTESIAN_POINT ( 'NONE',  ( -12.69999999999999929, 0.000000000000000000, 0.000000000000000000 ) ) ;
#133 = ORIENTED_EDGE ( 'NONE', *, *, #169, .F. ) ;
#134 = EDGE_CURVE ( 'NONE', #175, #114, #12, .T. ) ;
#135 = FACE_OUTER_BOUND ( 'NONE', #13, .T. ) ;
#136 = APPROVAL_DATE_TIME ( #33, #116 ) ;
#137 = CC_DESIGN_PERSON_AND_ORGANIZATION_ASSIGNMENT ( #43, #109, ( #61 ) ) ;
#138 = PERSON_AND_ORGANIZATION ( #122, #85 ) ;
#139 = APPROVAL_ROLE ( '' ) ;
#140 = CARTESIAN_POINT ( 'NONE',  ( 12.69999999999999929, 1.555301434917138433E-15, 0.000000000000000000 ) ) ;
#141 = APPROVAL_PERSON_ORGANIZATION ( #138, #116, #139 ) ;
#142 = CARTESIAN_POINT ( 'NONE',  ( 0.000000000000000000, 0.000000000000000000, 2.000000000000000000 ) ) ;
#143 = PRODUCT_RELATED_PRODUCT_CATEGORY ( 'detail', '', ( #8 ) ) ;
#144 = DIRECTION ( 'NONE',  ( -0.000000000000000000, -0.000000000000000000, -1.000000000000000000 ) ) ;
#145 = ORIENTED_EDGE ( 'NONE', *, *, #134, .F. ) ;
#146 = AXIS2_PLACEMENT_3D ( 'NONE', #15, #102, #118 ) ;
#147 = FACE_OUTER_BOUND ( 'NONE', #103, .T. ) ;
#148 = DIRECTION ( 'NONE',  ( -0.000000000000000000, -0.000000000000000000, -1.000000000000000000 ) ) ;
#149 = CARTESIAN_POINT ( 'NONE',  ( 0.000000000000000000, 0.000000000000000000, 0.000000000000000000 ) ) ;
#150 = COORDINATED_UNIVERSAL_TIME_OFFSET ( 5, 0, .BEHIND. ) ;
#151 = EDGE_CURVE ( 'NONE', #57, #114, #2, .T. ) ;
#152 = CC_DESIGN_SECURITY_CLASSIFICATION ( #117, ( #31 ) ) ;
#153 = LINE ( 'NONE', #167, #6 ) ;
#154 = COORDINATED_UNIVERSAL_TIME_OFFSET ( 5, 0, .BEHIND. ) ;
#155 = PRODUCT_DEFINITION_SHAPE ( 'NONE', 'NONE',  #61 ) ;
#156 = ADVANCED_FACE ( 'NONE', ( #147 ), #39, .T. ) ;
#157 = LOCAL_TIME ( 16, 29, 3.000000000000000000, #154 ) ;
#158 = CALENDAR_DATE ( 2022, 21, 3 ) ;
#159 = APPROVAL ( #82, 'UNSPECIFIED' ) ;
#160 = CARTESIAN_POINT ( 'NONE',  ( -12.69999999999999929, 0.000000000000000000, 2.000000000000000000 ) ) ;
#161 =( GEOMETRIC_REPRESENTATION_CONTEXT ( 3 ) GLOBAL_UNCERTAINTY_ASSIGNED_CONTEXT ( ( #172 ) ) GLOBAL_UNIT_ASSIGNED_CONTEXT ( ( #59, #106, #21 ) ) REPRESENTATION_CONTEXT ( 'NONE', 'WORKASPACE' ) );
#162 = EDGE_CURVE ( 'NONE', #114, #175, #166, .T. ) ;
#163 = VERTEX_POINT ( 'NONE', #124 ) ;
#164 = DATE_AND_TIME ( #68, #110 ) ;
#165 = MECHANICAL_CONTEXT ( 'NONE', #113, 'mechanical' ) ;
#166 = CIRCLE ( 'NONE', #94, 12.69999999999999929 ) ;
#167 = CARTESIAN_POINT ( 'NONE',  ( 12.69999999999999929, 1.555301434917138433E-15, 2.000000000000000000 ) ) ;
#168 = APPROVAL_PERSON_ORGANIZATION ( #23, #108, #171 ) ;
#169 = EDGE_CURVE ( 'NONE', #163, #175, #153, .T. ) ;
#170 = DATE_TIME_ROLE ( 'creation_date' ) ;
#171 = APPROVAL_ROLE ( '' ) ;
#172 = UNCERTAINTY_MEASURE_WITH_UNIT (LENGTH_MEASURE( 1.000000000000000082E-05 ), #59, 'distance_accuracy_value', 'NONE');
#173 = CALENDAR_DATE ( 2022, 21, 3 ) ;
#174 = ORIENTED_EDGE ( 'NONE', *, *, #162, .T. ) ;
#175 = VERTEX_POINT ( 'NONE', #140 ) ;
ENDSEC;
END-ISO-10303-21;
