ISO-10303-21;
HEADER;
FILE_DESCRIPTION (( 'STEP AP203' ),
    '1' );
FILE_NAME ('20126-E0W.STEP',
    '2015-06-08T17:22:10',
    ( 'Admin' ),
    ( '' ),
    'SwSTEP 2.0',
    'SolidWorks 2014',
    '' );
FILE_SCHEMA (( 'CONFIG_CONTROL_DESIGN' ));
ENDSEC;

DATA;
#1 = CARTESIAN_POINT ( 'NONE',  ( 0.0000000000000000000, 6.350000000000001400, -1.209999999999998000 ) ) ;
#2 = EDGE_LOOP ( 'NONE', ( #48, #163, #24, #212 ) ) ;
#3 = PRODUCT_DEFINITION_FORMATION_WITH_SPECIFIED_SOURCE ( 'ANY', '', #182, .NOT_KNOWN. ) ;
#4 = EDGE_CURVE ( 'NONE', #70, #98, #60, .T. ) ;
#5 = MANIFOLD_SOLID_BREP ( '20126-001-1-solid1', #234 ) ;
#6 =( NAMED_UNIT ( * ) PLANE_ANGLE_UNIT ( ) SI_UNIT ( $, .RADIAN. ) );
#7 = CARTESIAN_POINT ( 'NONE',  ( 0.0000000000000000000, -6.213064704706558700E-015, 1.209999999999891600 ) ) ;
#8 = ORIENTED_EDGE ( 'NONE', *, *, #158, .F. ) ;
#9 =( GEOMETRIC_REPRESENTATION_CONTEXT ( 3 ) GLOBAL_UNCERTAINTY_ASSIGNED_CONTEXT ( ( #156 ) ) GLOBAL_UNIT_ASSIGNED_CONTEXT ( ( #46, #6, #36 ) ) REPRESENTATION_CONTEXT ( 'NONE', 'WORKASPACE' ) );
#10 = DIRECTION ( 'NONE',  ( 0.0000000000000000000, 1.000000000000000000, 3.073328992872295400E-016 ) ) ;
#11 = ORIENTED_EDGE ( 'NONE', *, *, #19, .T. ) ;
#12 = EDGE_CURVE ( 'NONE', #110, #217, #174, .T. ) ;
#13 = COORDINATED_UNIVERSAL_TIME_OFFSET ( 5, 0, .BEHIND. ) ;
#14 = ORIENTED_EDGE ( 'NONE', *, *, #101, .T. ) ;
#15 = EDGE_LOOP ( 'NONE', ( #299, #123, #32, #173 ) ) ;
#16 = CIRCLE ( 'NONE', #128, 6.350000000000001400 ) ;
#17 = ADVANCED_FACE ( 'NONE', ( #181 ), #23, .T. ) ;
#18 = EDGE_CURVE ( 'NONE', #98, #70, #59, .T. ) ;
#19 = EDGE_CURVE ( 'NONE', #30, #38, #280, .T. ) ;
#20 = DIRECTION ( 'NONE',  ( -0.0000000000000000000, 3.061515884555943600E-016, -1.000000000000000000 ) ) ;
#21 = ORIENTED_EDGE ( 'NONE', *, *, #175, .F. ) ;
#22 = ADVANCED_BREP_SHAPE_REPRESENTATION ( '20126-E0W', ( #5, #78 ), #9 ) ;
#23 = CONICAL_SURFACE ( 'NONE', #221, 6.350000000000001400, 0.7853981633970128500 ) ;
#24 = ORIENTED_EDGE ( 'NONE', *, *, #185, .F. ) ;
#25 = ADVANCED_FACE ( 'NONE', ( #43 ), #230, .T. ) ;
#26 = EDGE_CURVE ( 'NONE', #38, #191, #294, .T. ) ;
#27 = AXIS2_PLACEMENT_3D ( 'NONE', #194, #273, #247 ) ;
#28 = DIRECTION ( 'NONE',  ( 0.0000000000000000000, 1.000000000000000000, 3.073328992872295400E-016 ) ) ;
#29 = ORIENTED_EDGE ( 'NONE', *, *, #220, .T. ) ;
#30 = VERTEX_POINT ( 'NONE', #7 ) ;
#31 = DIRECTION ( 'NONE',  ( 0.0000000000000000000, 0.7071067811862398200, -0.7071067811868552200 ) ) ;
#32 = ORIENTED_EDGE ( 'NONE', *, *, #72, .T. ) ;
#33 = APPROVAL_PERSON_ORGANIZATION ( #131, #57, #115 ) ;
#34 = CC_DESIGN_DATE_AND_TIME_ASSIGNMENT ( #149, #143, ( #65 ) ) ;
#35 = DESIGN_CONTEXT ( 'detailed design', #205, 'design' ) ;
#36 =( NAMED_UNIT ( * ) SI_UNIT ( $, .STERADIAN. ) SOLID_ANGLE_UNIT ( ) );
#37 = FACE_OUTER_BOUND ( 'NONE', #145, .T. ) ;
#38 = VERTEX_POINT ( 'NONE', #264 ) ;
#39 = CARTESIAN_POINT ( 'NONE',  ( 0.0000000000000000000, 6.349999999999998800, -1.068578643762689000 ) ) ;
#40 = ORIENTED_EDGE ( 'NONE', *, *, #12, .T. ) ;
#41 = COORDINATED_UNIVERSAL_TIME_OFFSET ( 5, 0, .BEHIND. ) ;
#42 = DIRECTION ( 'NONE',  ( -0.0000000000000000000, 3.061515884555943600E-016, -1.000000000000000000 ) ) ;
#43 = FACE_OUTER_BOUND ( 'NONE', #56, .T. ) ;
#44 = APPLICATION_PROTOCOL_DEFINITION ( 'international standard', 'config_control_design', 1994, #200 ) ;
#45 = AXIS2_PLACEMENT_3D ( 'NONE', #256, #261, #84 ) ;
#46 =( LENGTH_UNIT ( ) NAMED_UNIT ( * ) SI_UNIT ( .MILLI., .METRE. ) );
#47 = LINE ( 'NONE', #172, #284 ) ;
#48 = ORIENTED_EDGE ( 'NONE', *, *, #134, .T. ) ;
#49 = CALENDAR_DATE ( 2015, 8, 6 ) ;
#50 = DIRECTION ( 'NONE',  ( -0.0000000000000000000, 3.061515884555943600E-016, -1.000000000000000000 ) ) ;
#51 = APPROVAL_STATUS ( 'not_yet_approved' ) ;
#52 = PERSON_AND_ORGANIZATION ( #186, #243 ) ;
#53 = DIRECTION ( 'NONE',  ( 0.0000000000000000000, -1.000000000000000000, -3.143334444888610200E-016 ) ) ;
#54 = DIRECTION ( 'NONE',  ( 0.0000000000000000000, 0.0000000000000000000, 1.000000000000000000 ) ) ;
#55 = CC_DESIGN_APPROVAL ( #57, ( #3 ) ) ;
#56 = EDGE_LOOP ( 'NONE', ( #21, #11, #238 ) ) ;
#57 = APPROVAL ( #135, 'UNSPECIFIED' ) ;
#58 = DATE_TIME_ROLE ( 'classification_date' ) ;
#59 = CIRCLE ( 'NONE', #252, 6.349999999999998800 ) ;
#60 = CIRCLE ( 'NONE', #155, 6.349999999999998800 ) ;
#61 = PERSON_AND_ORGANIZATION_ROLE ( 'classification_officer' ) ;
#62 = CIRCLE ( 'NONE', #266, 6.208578643762704600 ) ;
#63 = DIRECTION ( 'NONE',  ( 0.0000000000000000000, -3.061515884555943600E-016, 1.000000000000000000 ) ) ;
#64 = ORIENTED_EDGE ( 'NONE', *, *, #175, .T. ) ;
#65 = PRODUCT_DEFINITION ( 'UNKNOWN', '', #3, #35 ) ;
#66 = SECURITY_CLASSIFICATION ( '', '', #77 ) ;
#67 = ADVANCED_FACE ( 'NONE', ( #258 ), #240, .T. ) ;
#68 = VECTOR ( 'NONE', #86, 1000.000000000000100 ) ;
#69 = DATE_AND_TIME ( #80, #130 ) ;
#70 = VERTEX_POINT ( 'NONE', #39 ) ;
#71 = AXIS2_PLACEMENT_3D ( 'NONE', #286, #165, #108 ) ;
#72 = EDGE_CURVE ( 'NONE', #191, #70, #203, .T. ) ;
#73 = COORDINATED_UNIVERSAL_TIME_OFFSET ( 5, 0, .BEHIND. ) ;
#74 = FACE_OUTER_BOUND ( 'NONE', #15, .T. ) ;
#75 = PERSON_AND_ORGANIZATION ( #186, #243 ) ;
#76 = CARTESIAN_POINT ( 'NONE',  ( 0.0000000000000000000, 4.677996271601486600E-016, -1.210000000000002000 ) ) ;
#77 = SECURITY_CLASSIFICATION_LEVEL ( 'unclassified' ) ;
#78 = AXIS2_PLACEMENT_3D ( 'NONE', #289, #290, #268 ) ;
#79 = ORIENTED_EDGE ( 'NONE', *, *, #279, .T. ) ;
#80 = CALENDAR_DATE ( 2015, 8, 6 ) ;
#81 = AXIS2_PLACEMENT_3D ( 'NONE', #93, #99, #104 ) ;
#82 = CC_DESIGN_PERSON_AND_ORGANIZATION_ASSIGNMENT ( #154, #147, ( #65 ) ) ;
#83 = PERSON_AND_ORGANIZATION_ROLE ( 'design_supplier' ) ;
#84 = DIRECTION ( 'NONE',  ( 0.0000000000000000000, 1.000000000000000000, 3.143334444888603300E-016 ) ) ;
#85 = PERSON_AND_ORGANIZATION_ROLE ( 'creator' ) ;
#86 = DIRECTION ( 'NONE',  ( 0.0000000000000000000, -0.7071067811865422400, 0.7071067811865526800 ) ) ;
#87 = CC_DESIGN_DATE_AND_TIME_ASSIGNMENT ( #69, #58, ( #66 ) ) ;
#88 = CARTESIAN_POINT ( 'NONE',  ( 7.776507174585692200E-016, -6.349999999999998800, -1.068578643762692700 ) ) ;
#89 = ORIENTED_EDGE ( 'NONE', *, *, #228, .F. ) ;
#90 = APPROVAL_PERSON_ORGANIZATION ( #52, #272, #297 ) ;
#91 = EDGE_CURVE ( 'NONE', #117, #191, #253, .T. ) ;
#92 = CYLINDRICAL_SURFACE ( 'NONE', #269, 6.350000000000000500 ) ;
#93 = CARTESIAN_POINT ( 'NONE',  ( 0.0000000000000000000, 4.677996271601486600E-016, -1.210000000000002000 ) ) ;
#94 = AXIS2_PLACEMENT_3D ( 'NONE', #218, #20, #116 ) ;
#95 = ORIENTED_EDGE ( 'NONE', *, *, #4, .F. ) ;
#96 = COORDINATED_UNIVERSAL_TIME_OFFSET ( 5, 0, .BEHIND. ) ;
#97 = ADVANCED_FACE ( 'NONE', ( #301 ), #236, .T. ) ;
#98 = VERTEX_POINT ( 'NONE', #88 ) ;
#99 = DIRECTION ( 'NONE',  ( -0.0000000000000000000, 3.061515884555943600E-016, -1.000000000000000000 ) ) ;
#100 = DIRECTION ( 'NONE',  ( 1.000000000000000000, 0.0000000000000000000, -0.0000000000000000000 ) ) ;
#101 = EDGE_CURVE ( 'NONE', #117, #98, #47, .T. ) ;
#102 = CALENDAR_DATE ( 2015, 8, 6 ) ;
#103 = PERSON_AND_ORGANIZATION ( #186, #243 ) ;
#104 = DIRECTION ( 'NONE',  ( 0.0000000000000000000, 1.000000000000000000, 3.143334444888610200E-016 ) ) ;
#105 = APPROVAL_DATE_TIME ( #121, #57 ) ;
#106 = CARTESIAN_POINT ( 'NONE',  ( 0.0000000000000000000, 5.666988362948454900E-015, -47.29600000000022700 ) ) ;
#107 = ORIENTED_EDGE ( 'NONE', *, *, #18, .T. ) ;
#108 = DIRECTION ( 'NONE',  ( 0.0000000000000000000, 1.000000000000000000, 3.061515884555943600E-016 ) ) ;
#109 = CC_DESIGN_APPROVAL ( #272, ( #66 ) ) ;
#110 = VERTEX_POINT ( 'NONE', #180 ) ;
#111 = CC_DESIGN_PERSON_AND_ORGANIZATION_ASSIGNMENT ( #113, #85, ( #3 ) ) ;
#112 = ADVANCED_FACE ( 'NONE', ( #193 ), #137, .T. ) ;
#113 = PERSON_AND_ORGANIZATION ( #186, #243 ) ;
#114 = DIRECTION ( 'NONE',  ( 1.000000000000000000, 1.224646799147353200E-016, 3.749275628560214200E-032 ) ) ;
#115 = APPROVAL_ROLE ( '' ) ;
#116 = DIRECTION ( 'NONE',  ( 0.0000000000000000000, 1.000000000000000000, 3.073328992872295400E-016 ) ) ;
#117 = VERTEX_POINT ( 'NONE', #260 ) ;
#118 = DIRECTION ( 'NONE',  ( 0.0000000000000000000, -1.000000000000000000, -3.143334444888610200E-016 ) ) ;
#119 = CC_DESIGN_SECURITY_CLASSIFICATION ( #66, ( #3 ) ) ;
#120 = AXIS2_PLACEMENT_3D ( 'NONE', #106, #114, #124 ) ;
#121 = DATE_AND_TIME ( #49, #127 ) ;
#122 = DIRECTION ( 'NONE',  ( 0.0000000000000000000, 1.000000000000000000, 3.073328992872296900E-016 ) ) ;
#123 = ORIENTED_EDGE ( 'NONE', *, *, #91, .T. ) ;
#124 = DIRECTION ( 'NONE',  ( -1.224646799147353200E-016, 1.000000000000000000, 0.0000000000000000000 ) ) ;
#125 = CARTESIAN_POINT ( 'NONE',  ( 0.0000000000000000000, 4.677996271601486600E-016, -1.210000000000002000 ) ) ;
#126 = ORIENTED_EDGE ( 'NONE', *, *, #142, .F. ) ;
#127 = LOCAL_TIME ( 13, 22, 10.00000000000000000, #41 ) ;
#128 = AXIS2_PLACEMENT_3D ( 'NONE', #132, #136, #141 ) ;
#129 = CALENDAR_DATE ( 2015, 8, 6 ) ;
#130 = LOCAL_TIME ( 13, 22, 10.00000000000000000, #73 ) ;
#131 = PERSON_AND_ORGANIZATION ( #186, #243 ) ;
#132 = CARTESIAN_POINT ( 'NONE',  ( 0.0000000000000000000, -1.076431640526052900E-016, 0.6696008673860540700 ) ) ;
#133 = APPROVAL ( #215, 'UNSPECIFIED' ) ;
#134 = EDGE_CURVE ( 'NONE', #38, #219, #62, .T. ) ;
#135 = APPROVAL_STATUS ( 'not_yet_approved' ) ;
#136 = DIRECTION ( 'NONE',  ( -0.0000000000000000000, 3.061515884555943600E-016, -1.000000000000000000 ) ) ;
#137 = PLANE ( 'NONE',  #71 ) ;
#138 = ORIENTED_EDGE ( 'NONE', *, *, #4, .T. ) ;
#139 = ADVANCED_FACE ( 'NONE', ( #293 ), #225, .T. ) ;
#140 = DIRECTION ( 'NONE',  ( 0.0000000000000000000, -3.061515884555943600E-016, 1.000000000000000000 ) ) ;
#141 = DIRECTION ( 'NONE',  ( 0.0000000000000000000, 1.000000000000000000, 3.073328992872295400E-016 ) ) ;
#142 = EDGE_CURVE ( 'NONE', #110, #98, #178, .T. ) ;
#143 = DATE_TIME_ROLE ( 'creation_date' ) ;
#144 = CARTESIAN_POINT ( 'NONE',  ( 0.0000000000000000000, 6.350000000000001400, 0.6696008673860559500 ) ) ;
#145 = EDGE_LOOP ( 'NONE', ( #278, #152, #223, #107 ) ) ;
#146 = DIRECTION ( 'NONE',  ( -0.0000000000000000000, 3.061515884555943600E-016, -1.000000000000000000 ) ) ;
#147 = PERSON_AND_ORGANIZATION_ROLE ( 'creator' ) ;
#148 = CARTESIAN_POINT ( 'NONE',  ( 0.0000000000000000000, 4.677996271601480700E-016, -1.210000000000000000 ) ) ;
#149 = DATE_AND_TIME ( #196, #164 ) ;
#150 = CARTESIAN_POINT ( 'NONE',  ( 0.0000000000000000000, 6.350000000000001400, 0.6696008673860559500 ) ) ;
#151 = EDGE_LOOP ( 'NONE', ( #8, #29, #138, #126 ) ) ;
#152 = ORIENTED_EDGE ( 'NONE', *, *, #12, .F. ) ;
#153 = CYLINDRICAL_SURFACE ( 'NONE', #159, 6.350000000000000500 ) ;
#154 = PERSON_AND_ORGANIZATION ( #186, #243 ) ;
#155 = AXIS2_PLACEMENT_3D ( 'NONE', #162, #146, #183 ) ;
#156 = UNCERTAINTY_MEASURE_WITH_UNIT (LENGTH_MEASURE( 1.000000000000000100E-005 ), #46, 'distance_accuracy_value', 'NONE');
#157 = DIRECTION ( 'NONE',  ( -1.000000000000000000, 0.0000000000000000000, 0.0000000000000000000 ) ) ;
#158 = EDGE_CURVE ( 'NONE', #217, #110, #189, .T. ) ;
#159 = AXIS2_PLACEMENT_3D ( 'NONE', #231, #232, #251 ) ;
#160 = DIRECTION ( 'NONE',  ( 0.0000000000000000000, 1.000000000000000000, 2.861045604216885300E-016 ) ) ;
#161 = AXIS2_PLACEMENT_3D ( 'NONE', #277, #262, #10 ) ;
#162 = CARTESIAN_POINT ( 'NONE',  ( 0.0000000000000000000, 4.245032543065514300E-016, -1.068578643762691000 ) ) ;
#163 = ORIENTED_EDGE ( 'NONE', *, *, #228, .T. ) ;
#164 = LOCAL_TIME ( 13, 22, 10.00000000000000000, #271 ) ;
#165 = DIRECTION ( 'NONE',  ( -0.0000000000000000000, 3.061515884555943600E-016, -1.000000000000000000 ) ) ;
#166 = VECTOR ( 'NONE', #208, 1000.000000000000100 ) ;
#167 = DIRECTION ( 'NONE',  ( -0.0000000000000000000, 3.061515884555943600E-016, -1.000000000000000000 ) ) ;
#168 = VECTOR ( 'NONE', #31, 1000.000000000000000 ) ;
#169 = DIRECTION ( 'NONE',  ( -0.0000000000000000000, 3.061515884555943600E-016, -1.000000000000000000 ) ) ;
#170 = EDGE_LOOP ( 'NONE', ( #245, #64, #204 ) ) ;
#171 = PRODUCT_DEFINITION_SHAPE ( 'NONE', 'NONE',  #65 ) ;
#172 = CARTESIAN_POINT ( 'NONE',  ( 7.776507174585693100E-016, -6.349999999999999600, -1.210000000000002000 ) ) ;
#173 = ORIENTED_EDGE ( 'NONE', *, *, #18, .F. ) ;
#174 = CIRCLE ( 'NONE', #27, 6.208578643762691300 ) ;
#175 = EDGE_CURVE ( 'NONE', #30, #219, #285, .T. ) ;
#176 = FACE_OUTER_BOUND ( 'NONE', #265, .T. ) ;
#177 = APPROVAL_DATE_TIME ( #198, #133 ) ;
#178 = LINE ( 'NONE', #298, #68 ) ;
#179 = DIRECTION ( 'NONE',  ( 0.0000000000000000000, 1.000000000000000000, 3.073328992872295900E-016 ) ) ;
#180 = CARTESIAN_POINT ( 'NONE',  ( 0.0000000000000000000, -6.208578643762690400, -1.210000000000003700 ) ) ;
#181 = FACE_OUTER_BOUND ( 'NONE', #2, .T. ) ;
#182 = PRODUCT ( '20126-E0W', '20126-E0W', '', ( #257 ) ) ;
#183 = DIRECTION ( 'NONE',  ( 0.0000000000000000000, 1.000000000000000000, 3.073328992872296900E-016 ) ) ;
#184 = CC_DESIGN_PERSON_AND_ORGANIZATION_ASSIGNMENT ( #242, #255, ( #182 ) ) ;
#185 = EDGE_CURVE ( 'NONE', #191, #117, #16, .T. ) ;
#186 = PERSON ( 'UNSPECIFIED', 'UNSPECIFIED', 'UNSPECIFIED', ('UNSPECIFIED'), ('UNSPECIFIED'), ('UNSPECIFIED') ) ;
#187 = VECTOR ( 'NONE', #224, 999.9999999999998900 ) ;
#188 = APPROVAL_DATE_TIME ( #249, #272 ) ;
#189 = CIRCLE ( 'NONE', #81, 6.208578643762691300 ) ;
#190 = CARTESIAN_POINT ( 'NONE',  ( 7.689911568962143300E-016, 6.208578643762692200, -1.210000000000000000 ) ) ;
#191 = VERTEX_POINT ( 'NONE', #150 ) ;
#192 = CONICAL_SURFACE ( 'NONE', #197, 6.208578643762691300, 0.7853981633974406200 ) ;
#193 = FACE_OUTER_BOUND ( 'NONE', #274, .T. ) ;
#194 = CARTESIAN_POINT ( 'NONE',  ( 0.0000000000000000000, 4.677996271601486600E-016, -1.210000000000002000 ) ) ;
#195 = ORIENTED_EDGE ( 'NONE', *, *, #158, .T. ) ;
#196 = CALENDAR_DATE ( 2015, 8, 6 ) ;
#197 = AXIS2_PLACEMENT_3D ( 'NONE', #76, #63, #53 ) ;
#198 = DATE_AND_TIME ( #129, #227 ) ;
#199 = CARTESIAN_POINT ( 'NONE',  ( 7.603315963338634900E-016, -6.208578643762731300, 0.8110222236234736500 ) ) ;
#200 = APPLICATION_CONTEXT ( 'configuration controlled 3d designs of mechanical parts and assemblies' ) ;
#201 = APPROVAL_ROLE ( '' ) ;
#202 = LINE ( 'NONE', #207, #166 ) ;
#203 = LINE ( 'NONE', #1, #246 ) ;
#204 = ORIENTED_EDGE ( 'NONE', *, *, #134, .F. ) ;
#205 = APPLICATION_CONTEXT ( 'configuration controlled 3d designs of mechanical parts and assemblies' ) ;
#206 = AXIS2_PLACEMENT_3D ( 'NONE', #259, #100, #213 ) ;
#207 = CARTESIAN_POINT ( 'NONE',  ( 7.603315963338594400E-016, 6.208578643762692200, -1.210000000000000000 ) ) ;
#208 = DIRECTION ( 'NONE',  ( 8.659560562354866300E-017, 0.7071067811865418000, 0.7071067811865531200 ) ) ;
#209 = ADVANCED_FACE ( 'NONE', ( #74 ), #92, .T. ) ;
#210 = AXIS2_PLACEMENT_3D ( 'NONE', #292, #157, #54 ) ;
#211 = CARTESIAN_POINT ( 'NONE',  ( 0.0000000000000000000, 4.245032543065514300E-016, -1.068578643762691000 ) ) ;
#212 = ORIENTED_EDGE ( 'NONE', *, *, #26, .F. ) ;
#213 = DIRECTION ( 'NONE',  ( 0.0000000000000000000, 1.000000000000000000, 2.861045604216885300E-016 ) ) ;
#214 = CC_DESIGN_APPROVAL ( #133, ( #65 ) ) ;
#215 = APPROVAL_STATUS ( 'not_yet_approved' ) ;
#216 = LINE ( 'NONE', #222, #187 ) ;
#217 = VERTEX_POINT ( 'NONE', #190 ) ;
#218 = CARTESIAN_POINT ( 'NONE',  ( 0.0000000000000000000, -1.076431640526052900E-016, 0.6696008673860540700 ) ) ;
#219 = VERTEX_POINT ( 'NONE', #199 ) ;
#220 = EDGE_CURVE ( 'NONE', #217, #70, #202, .T. ) ;
#221 = AXIS2_PLACEMENT_3D ( 'NONE', #239, #50, #28 ) ;
#222 = CARTESIAN_POINT ( 'NONE',  ( 7.776507174585694100E-016, -6.350000000000001400, 0.6696008673860520700 ) ) ;
#223 = ORIENTED_EDGE ( 'NONE', *, *, #142, .T. ) ;
#224 = DIRECTION ( 'NONE',  ( 8.659560562351163600E-017, -0.7071067811862393700, -0.7071067811868557700 ) ) ;
#225 = SPHERICAL_SURFACE ( 'NONE', #263, 48.50600000000012100 ) ;
#226 = ORIENTED_EDGE ( 'NONE', *, *, #72, .F. ) ;
#227 = LOCAL_TIME ( 13, 22, 10.00000000000000000, #13 ) ;
#228 = EDGE_CURVE ( 'NONE', #219, #117, #216, .T. ) ;
#229 = LOCAL_TIME ( 13, 22, 10.00000000000000000, #96 ) ;
#230 = SPHERICAL_SURFACE ( 'NONE', #206, 48.50600000000012100 ) ;
#231 = CARTESIAN_POINT ( 'NONE',  ( 0.0000000000000000000, 4.677996271601480700E-016, -1.210000000000000000 ) ) ;
#232 = DIRECTION ( 'NONE',  ( -0.0000000000000000000, 3.061515884555943600E-016, -1.000000000000000000 ) ) ;
#233 = ORIENTED_EDGE ( 'NONE', *, *, #185, .T. ) ;
#234 = CLOSED_SHELL ( 'NONE', ( #97, #250, #17, #139, #112, #25, #67, #209, #288 ) ) ;
#235 = APPROVAL_PERSON_ORGANIZATION ( #237, #133, #201 ) ;
#236 = CONICAL_SURFACE ( 'NONE', #275, 6.208578643762691300, 0.7853981633974406200 ) ;
#237 = PERSON_AND_ORGANIZATION ( #186, #243 ) ;
#238 = ORIENTED_EDGE ( 'NONE', *, *, #279, .F. ) ;
#239 = CARTESIAN_POINT ( 'NONE',  ( 0.0000000000000000000, -1.076431640526052900E-016, 0.6696008673860540700 ) ) ;
#240 = CONICAL_SURFACE ( 'NONE', #161, 6.350000000000001400, 0.7853981633970128500 ) ;
#241 = APPLICATION_PROTOCOL_DEFINITION ( 'international standard', 'config_control_design', 1994, #205 ) ;
#242 = PERSON_AND_ORGANIZATION ( #186, #243 ) ;
#243 = ORGANIZATION ( 'UNSPECIFIED', 'UNSPECIFIED', '' ) ;
#244 = DIRECTION ( 'NONE',  ( -0.0000000000000000000, 3.061515884555943600E-016, -1.000000000000000000 ) ) ;
#245 = ORIENTED_EDGE ( 'NONE', *, *, #19, .F. ) ;
#246 = VECTOR ( 'NONE', #244, 1000.000000000000000 ) ;
#247 = DIRECTION ( 'NONE',  ( 0.0000000000000000000, 1.000000000000000000, 3.143334444888610200E-016 ) ) ;
#248 = ORIENTED_EDGE ( 'NONE', *, *, #91, .F. ) ;
#249 = DATE_AND_TIME ( #102, #229 ) ;
#250 = ADVANCED_FACE ( 'NONE', ( #176 ), #153, .T. ) ;
#251 = DIRECTION ( 'NONE',  ( 0.0000000000000000000, 1.000000000000000000, 3.073328992872295900E-016 ) ) ;
#252 = AXIS2_PLACEMENT_3D ( 'NONE', #211, #42, #122 ) ;
#253 = CIRCLE ( 'NONE', #94, 6.350000000000001400 ) ;
#254 = ORIENTED_EDGE ( 'NONE', *, *, #26, .T. ) ;
#255 = PERSON_AND_ORGANIZATION_ROLE ( 'design_owner' ) ;
#256 = CARTESIAN_POINT ( 'NONE',  ( 0.0000000000000000000, -1.509395369062358400E-016, 0.8110222236234738700 ) ) ;
#257 = MECHANICAL_CONTEXT ( 'NONE', #200, 'mechanical' ) ;
#258 = FACE_OUTER_BOUND ( 'NONE', #287, .T. ) ;
#259 = CARTESIAN_POINT ( 'NONE',  ( 0.0000000000000000000, 5.666988362948454900E-015, -47.29600000000022700 ) ) ;
#260 = CARTESIAN_POINT ( 'NONE',  ( 7.776507174585694100E-016, -6.350000000000001400, 0.6696008673860520700 ) ) ;
#261 = DIRECTION ( 'NONE',  ( -0.0000000000000000000, 3.061515884555943600E-016, -1.000000000000000000 ) ) ;
#262 = DIRECTION ( 'NONE',  ( -0.0000000000000000000, 3.061515884555943600E-016, -1.000000000000000000 ) ) ;
#263 = AXIS2_PLACEMENT_3D ( 'NONE', #291, #296, #160 ) ;
#264 = CARTESIAN_POINT ( 'NONE',  ( 0.0000000000000000000, 6.208578643762723300, 0.8110222236234756500 ) ) ;
#265 = EDGE_LOOP ( 'NONE', ( #233, #14, #95, #226 ) ) ;
#266 = AXIS2_PLACEMENT_3D ( 'NONE', #270, #282, #283 ) ;
#267 = CC_DESIGN_PERSON_AND_ORGANIZATION_ASSIGNMENT ( #103, #83, ( #3 ) ) ;
#268 = DIRECTION ( 'NONE',  ( 1.000000000000000000, 0.0000000000000000000, 0.0000000000000000000 ) ) ;
#269 = AXIS2_PLACEMENT_3D ( 'NONE', #148, #167, #179 ) ;
#270 = CARTESIAN_POINT ( 'NONE',  ( 0.0000000000000000000, -1.509395369062358400E-016, 0.8110222236234738700 ) ) ;
#271 = COORDINATED_UNIVERSAL_TIME_OFFSET ( 5, 0, .BEHIND. ) ;
#272 = APPROVAL ( #51, 'UNSPECIFIED' ) ;
#273 = DIRECTION ( 'NONE',  ( -0.0000000000000000000, 3.061515884555943600E-016, -1.000000000000000000 ) ) ;
#274 = EDGE_LOOP ( 'NONE', ( #40, #195 ) ) ;
#275 = AXIS2_PLACEMENT_3D ( 'NONE', #125, #140, #118 ) ;
#276 = PRODUCT_RELATED_PRODUCT_CATEGORY ( 'detail', '', ( #182 ) ) ;
#277 = CARTESIAN_POINT ( 'NONE',  ( 0.0000000000000000000, -1.076431640526052900E-016, 0.6696008673860540700 ) ) ;
#278 = ORIENTED_EDGE ( 'NONE', *, *, #220, .F. ) ;
#279 = EDGE_CURVE ( 'NONE', #219, #38, #300, .T. ) ;
#280 = CIRCLE ( 'NONE', #210, 48.50600000000012100 ) ;
#281 = SHAPE_DEFINITION_REPRESENTATION ( #171, #22 ) ;
#282 = DIRECTION ( 'NONE',  ( -0.0000000000000000000, 3.061515884555943600E-016, -1.000000000000000000 ) ) ;
#283 = DIRECTION ( 'NONE',  ( 0.0000000000000000000, 1.000000000000000000, 3.143334444888603300E-016 ) ) ;
#284 = VECTOR ( 'NONE', #169, 1000.000000000000000 ) ;
#285 = CIRCLE ( 'NONE', #120, 48.50600000000012100 ) ;
#286 = CARTESIAN_POINT ( 'NONE',  ( 0.0000000000000000000, 4.677996271601483700E-016, -1.210000000000000900 ) ) ;
#287 = EDGE_LOOP ( 'NONE', ( #89, #79, #254, #248 ) ) ;
#288 = ADVANCED_FACE ( 'NONE', ( #37 ), #192, .T. ) ;
#289 = CARTESIAN_POINT ( 'NONE',  ( 0.0000000000000000000, 0.0000000000000000000, 0.0000000000000000000 ) ) ;
#290 = DIRECTION ( 'NONE',  ( 0.0000000000000000000, 0.0000000000000000000, 1.000000000000000000 ) ) ;
#291 = CARTESIAN_POINT ( 'NONE',  ( 0.0000000000000000000, 5.666988362948454900E-015, -47.29600000000022700 ) ) ;
#292 = CARTESIAN_POINT ( 'NONE',  ( 0.0000000000000000000, 5.666988362948454900E-015, -47.29600000000022700 ) ) ;
#293 = FACE_OUTER_BOUND ( 'NONE', #170, .T. ) ;
#294 = LINE ( 'NONE', #144, #168 ) ;
#295 = CC_DESIGN_PERSON_AND_ORGANIZATION_ASSIGNMENT ( #75, #61, ( #66 ) ) ;
#296 = DIRECTION ( 'NONE',  ( 1.000000000000000000, 0.0000000000000000000, -0.0000000000000000000 ) ) ;
#297 = APPROVAL_ROLE ( '' ) ;
#298 = CARTESIAN_POINT ( 'NONE',  ( 0.0000000000000000000, -6.208578643762690400, -1.210000000000003700 ) ) ;
#299 = ORIENTED_EDGE ( 'NONE', *, *, #101, .F. ) ;
#300 = CIRCLE ( 'NONE', #45, 6.208578643762704600 ) ;
#301 = FACE_OUTER_BOUND ( 'NONE', #151, .T. ) ;
ENDSEC;
END-ISO-10303-21;
