ISO-10303-21;
HEADER;
FILE_DESCRIPTION (( 'STEP AP203' ),
    '1' );
FILE_NAME ('Web Model 14959_14972.step',
    '2020-07-27T18:33:13',
    ( '' ),
    ( '' ),
    'SwSTEP 2.0',
    'SolidWorks 2018',
    '' );
FILE_SCHEMA (( 'CONFIG_CONTROL_DESIGN' ));
ENDSEC;

DATA;
#1 = PRODUCT_DEFINITION_FORMATION_WITH_SPECIFIED_SOURCE ( 'ANY', '', #33, .NOT_KNOWN. ) ;
#2 = MANIFOLD_SOLID_BREP ( 'Boss-Extrude1', #111 ) ;
#3 = ORIENTED_EDGE ( 'NONE', *, *, #107, .T. ) ;
#4 = SECURITY_CLASSIFICATION ( '', '', #175 ) ;
#5 = APPLICATION_CONTEXT ( 'configuration controlled 3d designs of mechanical parts and assemblies' ) ;
#6 = DIRECTION ( 'NONE',  ( -1.000000000000000000, -0.0000000000000000000, -0.0000000000000000000 ) ) ;
#7 = PERSON_AND_ORGANIZATION ( #55, #18 ) ;
#8 = CC_DESIGN_PERSON_AND_ORGANIZATION_ASSIGNMENT ( #7, #94, ( #4 ) ) ;
#9 = PERSON_AND_ORGANIZATION ( #55, #18 ) ;
#10 = ORIENTED_EDGE ( 'NONE', *, *, #78, .F. ) ;
#11 = APPROVAL_STATUS ( 'not_yet_approved' ) ;
#12 = APPROVAL_DATE_TIME ( #93, #104 ) ;
#13 = ORIENTED_EDGE ( 'NONE', *, *, #85, .T. ) ;
#14 = PERSON_AND_ORGANIZATION ( #55, #18 ) ;
#15 = CALENDAR_DATE ( 2020, 27, 7 ) ;
#16 = AXIS2_PLACEMENT_3D ( 'NONE', #157, #128, #144 ) ;
#17 = LOCAL_TIME ( 14, 33, 13.00000000000000000, #152 ) ;
#18 = ORGANIZATION ( 'UNSPECIFIED', 'UNSPECIFIED', '' ) ;
#19 = VERTEX_POINT ( 'NONE', #71 ) ;
#20 = CARTESIAN_POINT ( 'NONE',  ( 1.500000000000000000, 0.0000000000000000000, 0.0000000000000000000 ) ) ;
#21 =( NAMED_UNIT ( * ) PLANE_ANGLE_UNIT ( ) SI_UNIT ( $, .RADIAN. ) );
#22 = APPROVAL ( #11, 'UNSPECIFIED' ) ;
#23 = COORDINATED_UNIVERSAL_TIME_OFFSET ( 5, 0, .BEHIND. ) ;
#24 = APPLICATION_PROTOCOL_DEFINITION ( 'international standard', 'config_control_design', 1994, #5 ) ;
#25 = APPROVAL_PERSON_ORGANIZATION ( #119, #104, #118 ) ;
#26 = PRODUCT_RELATED_PRODUCT_CATEGORY ( 'detail', '', ( #33 ) ) ;
#27 = COORDINATED_UNIVERSAL_TIME_OFFSET ( 5, 0, .BEHIND. ) ;
#28 = PERSON_AND_ORGANIZATION_ROLE ( 'creator' ) ;
#29 = APPLICATION_CONTEXT ( 'configuration controlled 3d designs of mechanical parts and assemblies' ) ;
#30 = AXIS2_PLACEMENT_3D ( 'NONE', #98, #67, #72 ) ;
#31 = DIRECTION ( 'NONE',  ( 1.000000000000000000, 0.0000000000000000000, 0.0000000000000000000 ) ) ;
#32 = CARTESIAN_POINT ( 'NONE',  ( 1.500000000000000000, 7.654042494670957606E-16, -6.250000000000000000 ) ) ;
#33 = PRODUCT ( 'Web Model 14959_14972', 'Web Model 14959_14972', '', ( #37 ) ) ;
#34 = ORIENTED_EDGE ( 'NONE', *, *, #73, .T. ) ;
#35 = DIRECTION ( 'NONE',  ( -1.000000000000000000, -0.0000000000000000000, -0.0000000000000000000 ) ) ;
#36 = AXIS2_PLACEMENT_3D ( 'NONE', #20, #169, #101 ) ;
#37 = MECHANICAL_CONTEXT ( 'NONE', #5, 'mechanical' ) ;
#38 = COORDINATED_UNIVERSAL_TIME_OFFSET ( 5, 0, .BEHIND. ) ;
#39 = VECTOR ( 'NONE', #6, 1000.000000000000000 ) ;
#40 = CC_DESIGN_DATE_AND_TIME_ASSIGNMENT ( #141, #148, ( #154 ) ) ;
#41 = CC_DESIGN_APPROVAL ( #104, ( #1 ) ) ;
#42 = DATE_AND_TIME ( #149, #17 ) ;
#43 = CARTESIAN_POINT ( 'NONE',  ( 1.500000000000000000, 0.0000000000000000000, 6.250000000000000000 ) ) ;
#44 = CARTESIAN_POINT ( 'NONE',  ( 0.0000000000000000000, 0.0000000000000000000, 0.0000000000000000000 ) ) ;
#45 = CARTESIAN_POINT ( 'NONE',  ( -1.500000000000000000, 0.0000000000000000000, 0.0000000000000000000 ) ) ;
#46 = CIRCLE ( 'NONE', #139, 6.250000000000000000 ) ;
#47 = PERSON_AND_ORGANIZATION ( #55, #18 ) ;
#48 = PERSON_AND_ORGANIZATION_ROLE ( 'design_supplier' ) ;
#49 = CC_DESIGN_PERSON_AND_ORGANIZATION_ASSIGNMENT ( #151, #132, ( #1 ) ) ;
#50 = DATE_AND_TIME ( #137, #122 ) ;
#51 = APPROVAL_DATE_TIME ( #88, #174 ) ;
#52 = VECTOR ( 'NONE', #35, 1000.000000000000000 ) ;
#53 = APPROVAL_PERSON_ORGANIZATION ( #130, #174, #173 ) ;
#54 = EDGE_CURVE ( 'NONE', #110, #19, #158, .T. ) ;
#55 = PERSON ( 'UNSPECIFIED', 'UNSPECIFIED', 'UNSPECIFIED', ('UNSPECIFIED'), ('UNSPECIFIED'), ('UNSPECIFIED') ) ;
#56 = LINE ( 'NONE', #57, #52 ) ;
#57 = CARTESIAN_POINT ( 'NONE',  ( 1.500000000000000000, 0.0000000000000000000, 6.250000000000000000 ) ) ;
#58 =( NAMED_UNIT ( * ) SI_UNIT ( $, .STERADIAN. ) SOLID_ANGLE_UNIT ( ) );
#59 = DIRECTION ( 'NONE',  ( 0.0000000000000000000, 0.0000000000000000000, 1.000000000000000000 ) ) ;
#60 = ORIENTED_EDGE ( 'NONE', *, *, #62, .T. ) ;
#61 = PERSON_AND_ORGANIZATION_ROLE ( 'design_owner' ) ;
#62 = EDGE_CURVE ( 'NONE', #162, #80, #46, .T. ) ;
#63 = ORIENTED_EDGE ( 'NONE', *, *, #85, .F. ) ;
#64 = ORIENTED_EDGE ( 'NONE', *, *, #107, .F. ) ;
#65 = LINE ( 'NONE', #32, #39 ) ;
#66 = LOCAL_TIME ( 14, 33, 13.00000000000000000, #127 ) ;
#67 = DIRECTION ( 'NONE',  ( 1.000000000000000000, 0.0000000000000000000, 0.0000000000000000000 ) ) ;
#68 = CYLINDRICAL_SURFACE ( 'NONE', #36, 6.250000000000000000 ) ;
#69 = CC_DESIGN_PERSON_AND_ORGANIZATION_ASSIGNMENT ( #9, #61, ( #33 ) ) ;
#70 = ADVANCED_FACE ( 'NONE', ( #99 ), #155, .T. ) ;
#71 = CARTESIAN_POINT ( 'NONE',  ( -1.500000000000000000, 0.0000000000000000000, 6.250000000000000000 ) ) ;
#72 = DIRECTION ( 'NONE',  ( 0.0000000000000000000, 0.0000000000000000000, -1.000000000000000000 ) ) ;
#73 = EDGE_CURVE ( 'NONE', #80, #162, #120, .T. ) ;
#74 = ADVANCED_FACE ( 'NONE', ( #86 ), #125, .T. ) ;
#75 = CC_DESIGN_PERSON_AND_ORGANIZATION_ASSIGNMENT ( #47, #48, ( #1 ) ) ;
#76 = DIRECTION ( 'NONE',  ( 0.0000000000000000000, 0.0000000000000000000, 1.000000000000000000 ) ) ;
#77 = ORIENTED_EDGE ( 'NONE', *, *, #78, .T. ) ;
#78 = EDGE_CURVE ( 'NONE', #80, #19, #56, .T. ) ;
#79 = DATE_TIME_ROLE ( 'classification_date' ) ;
#80 = VERTEX_POINT ( 'NONE', #43 ) ;
#81 = SHAPE_DEFINITION_REPRESENTATION ( #90, #170 ) ;
#82 = ORIENTED_EDGE ( 'NONE', *, *, #62, .F. ) ;
#83 = DIRECTION ( 'NONE',  ( 0.0000000000000000000, 0.0000000000000000000, -1.000000000000000000 ) ) ;
#84 = DIRECTION ( 'NONE',  ( 1.000000000000000000, 0.0000000000000000000, 0.0000000000000000000 ) ) ;
#85 = EDGE_CURVE ( 'NONE', #19, #110, #134, .T. ) ;
#86 = FACE_OUTER_BOUND ( 'NONE', #145, .T. ) ;
#87 = DIRECTION ( 'NONE',  ( 1.000000000000000000, 0.0000000000000000000, 0.0000000000000000000 ) ) ;
#88 = DATE_AND_TIME ( #123, #163 ) ;
#89 = PLANE ( 'NONE',  #161 ) ;
#90 = PRODUCT_DEFINITION_SHAPE ( 'NONE', 'NONE',  #154 ) ;
#91 = DIRECTION ( 'NONE',  ( 0.0000000000000000000, 0.0000000000000000000, -1.000000000000000000 ) ) ;
#92 = APPROVAL_ROLE ( '' ) ;
#93 = DATE_AND_TIME ( #126, #108 ) ;
#94 = PERSON_AND_ORGANIZATION_ROLE ( 'classification_officer' ) ;
#95 = APPROVAL_STATUS ( 'not_yet_approved' ) ;
#96 = FACE_OUTER_BOUND ( 'NONE', #97, .T. ) ;
#97 = EDGE_LOOP ( 'NONE', ( #64, #124, #77, #13 ) ) ;
#98 = CARTESIAN_POINT ( 'NONE',  ( 1.500000000000000000, 0.0000000000000000000, 0.0000000000000000000 ) ) ;
#99 = FACE_OUTER_BOUND ( 'NONE', #102, .T. ) ;
#100 = AXIS2_PLACEMENT_3D ( 'NONE', #44, #59, #150 ) ;
#101 = DIRECTION ( 'NONE',  ( 0.0000000000000000000, 0.0000000000000000000, 1.000000000000000000 ) ) ;
#102 = EDGE_LOOP ( 'NONE', ( #34, #60 ) ) ;
#103 = DIRECTION ( 'NONE',  ( 0.0000000000000000000, 0.0000000000000000000, -1.000000000000000000 ) ) ;
#104 = APPROVAL ( #160, 'UNSPECIFIED' ) ;
#105 = AXIS2_PLACEMENT_3D ( 'NONE', #146, #156, #76 ) ;
#106 = APPLICATION_PROTOCOL_DEFINITION ( 'international standard', 'config_control_design', 1994, #29 ) ;
#107 = EDGE_CURVE ( 'NONE', #162, #110, #65, .T. ) ;
#108 = LOCAL_TIME ( 14, 33, 13.00000000000000000, #27 ) ;
#109 = PERSON_AND_ORGANIZATION ( #55, #18 ) ;
#110 = VERTEX_POINT ( 'NONE', #159 ) ;
#111 = CLOSED_SHELL ( 'NONE', ( #74, #143, #70, #168 ) ) ;
#112 = CARTESIAN_POINT ( 'NONE',  ( 1.500000000000000000, 0.0000000000000000000, 0.0000000000000000000 ) ) ;
#113 = CC_DESIGN_DATE_AND_TIME_ASSIGNMENT ( #42, #79, ( #4 ) ) ;
#114 = CARTESIAN_POINT ( 'NONE',  ( 1.500000000000000000, 7.654042494670957606E-16, -6.250000000000000000 ) ) ;
#115 = APPROVAL_DATE_TIME ( #50, #22 ) ;
#116 = FACE_OUTER_BOUND ( 'NONE', #165, .T. ) ;
#117 = AXIS2_PLACEMENT_3D ( 'NONE', #45, #147, #103 ) ;
#118 = APPROVAL_ROLE ( '' ) ;
#119 = PERSON_AND_ORGANIZATION ( #55, #18 ) ;
#120 = CIRCLE ( 'NONE', #16, 6.250000000000000000 ) ;
#121 = CC_DESIGN_APPROVAL ( #22, ( #4 ) ) ;
#122 = LOCAL_TIME ( 14, 33, 13.00000000000000000, #38 ) ;
#123 = CALENDAR_DATE ( 2020, 27, 7 ) ;
#124 = ORIENTED_EDGE ( 'NONE', *, *, #73, .F. ) ;
#125 = CYLINDRICAL_SURFACE ( 'NONE', #105, 6.250000000000000000 ) ;
#126 = CALENDAR_DATE ( 2020, 27, 7 ) ;
#127 = COORDINATED_UNIVERSAL_TIME_OFFSET ( 5, 0, .BEHIND. ) ;
#128 = DIRECTION ( 'NONE',  ( 1.000000000000000000, 0.0000000000000000000, 0.0000000000000000000 ) ) ;
#129 = DESIGN_CONTEXT ( 'detailed design', #29, 'design' ) ;
#130 = PERSON_AND_ORGANIZATION ( #55, #18 ) ;
#131 = AXIS2_PLACEMENT_3D ( 'NONE', #166, #84, #83 ) ;
#132 = PERSON_AND_ORGANIZATION_ROLE ( 'creator' ) ;
#133 = CC_DESIGN_SECURITY_CLASSIFICATION ( #4, ( #1 ) ) ;
#134 = CIRCLE ( 'NONE', #117, 6.250000000000000000 ) ;
#135 = UNCERTAINTY_MEASURE_WITH_UNIT (LENGTH_MEASURE( 1.000000000000000082E-05 ), #172, 'distance_accuracy_value', 'NONE');
#136 = CC_DESIGN_PERSON_AND_ORGANIZATION_ASSIGNMENT ( #14, #28, ( #154 ) ) ;
#137 = CALENDAR_DATE ( 2020, 27, 7 ) ;
#138 = ORIENTED_EDGE ( 'NONE', *, *, #54, .F. ) ;
#139 = AXIS2_PLACEMENT_3D ( 'NONE', #112, #31, #153 ) ;
#140 = ORIENTED_EDGE ( 'NONE', *, *, #54, .T. ) ;
#141 = DATE_AND_TIME ( #15, #66 ) ;
#142 =( GEOMETRIC_REPRESENTATION_CONTEXT ( 3 ) GLOBAL_UNCERTAINTY_ASSIGNED_CONTEXT ( ( #135 ) ) GLOBAL_UNIT_ASSIGNED_CONTEXT ( ( #172, #21, #58 ) ) REPRESENTATION_CONTEXT ( 'NONE', 'WORKASPACE' ) );
#143 = ADVANCED_FACE ( 'NONE', ( #96 ), #68, .T. ) ;
#144 = DIRECTION ( 'NONE',  ( 0.0000000000000000000, 0.0000000000000000000, -1.000000000000000000 ) ) ;
#145 = EDGE_LOOP ( 'NONE', ( #82, #3, #140, #10 ) ) ;
#146 = CARTESIAN_POINT ( 'NONE',  ( 1.500000000000000000, 0.0000000000000000000, 0.0000000000000000000 ) ) ;
#147 = DIRECTION ( 'NONE',  ( 1.000000000000000000, 0.0000000000000000000, 0.0000000000000000000 ) ) ;
#148 = DATE_TIME_ROLE ( 'creation_date' ) ;
#149 = CALENDAR_DATE ( 2020, 27, 7 ) ;
#150 = DIRECTION ( 'NONE',  ( 1.000000000000000000, 0.0000000000000000000, 0.0000000000000000000 ) ) ;
#151 = PERSON_AND_ORGANIZATION ( #55, #18 ) ;
#152 = COORDINATED_UNIVERSAL_TIME_OFFSET ( 5, 0, .BEHIND. ) ;
#153 = DIRECTION ( 'NONE',  ( 0.0000000000000000000, 0.0000000000000000000, -1.000000000000000000 ) ) ;
#154 = PRODUCT_DEFINITION ( 'UNKNOWN', '', #1, #129 ) ;
#155 = PLANE ( 'NONE',  #30 ) ;
#156 = DIRECTION ( 'NONE',  ( -1.000000000000000000, -0.0000000000000000000, -0.0000000000000000000 ) ) ;
#157 = CARTESIAN_POINT ( 'NONE',  ( 1.500000000000000000, 0.0000000000000000000, 0.0000000000000000000 ) ) ;
#158 = CIRCLE ( 'NONE', #131, 6.250000000000000000 ) ;
#159 = CARTESIAN_POINT ( 'NONE',  ( -1.500000000000000000, 7.654042494670957606E-16, -6.250000000000000000 ) ) ;
#160 = APPROVAL_STATUS ( 'not_yet_approved' ) ;
#161 = AXIS2_PLACEMENT_3D ( 'NONE', #171, #87, #91 ) ;
#162 = VERTEX_POINT ( 'NONE', #114 ) ;
#163 = LOCAL_TIME ( 14, 33, 13.00000000000000000, #23 ) ;
#164 = APPROVAL_PERSON_ORGANIZATION ( #109, #22, #92 ) ;
#165 = EDGE_LOOP ( 'NONE', ( #63, #138 ) ) ;
#166 = CARTESIAN_POINT ( 'NONE',  ( -1.500000000000000000, 0.0000000000000000000, 0.0000000000000000000 ) ) ;
#167 = CC_DESIGN_APPROVAL ( #174, ( #154 ) ) ;
#168 = ADVANCED_FACE ( 'NONE', ( #116 ), #89, .F. ) ;
#169 = DIRECTION ( 'NONE',  ( -1.000000000000000000, -0.0000000000000000000, -0.0000000000000000000 ) ) ;
#170 = ADVANCED_BREP_SHAPE_REPRESENTATION ( 'Web Model 14959_14972', ( #2, #100 ), #142 ) ;
#171 = CARTESIAN_POINT ( 'NONE',  ( -1.500000000000000000, 0.0000000000000000000, 0.0000000000000000000 ) ) ;
#172 =( LENGTH_UNIT ( ) NAMED_UNIT ( * ) SI_UNIT ( .MILLI., .METRE. ) );
#173 = APPROVAL_ROLE ( '' ) ;
#174 = APPROVAL ( #95, 'UNSPECIFIED' ) ;
#175 = SECURITY_CLASSIFICATION_LEVEL ( 'unclassified' ) ;
ENDSEC;
END-ISO-10303-21;
