ISO-10303-21;
HEADER;
FILE_DESCRIPTION (( 'STEP AP203' ),
    '1' );
FILE_NAME ('Web Model 85296_85300.step',
    '2017-05-01T20:09:27',
    ( '' ),
    ( '' ),
    'SwSTEP 2.0',
    'SolidWorks 2016',
    '' );
FILE_SCHEMA (( 'CONFIG_CONTROL_DESIGN' ));
ENDSEC;

DATA;
#1 = VECTOR ( 'NONE', #185, 1000.000000000000000 ) ;
#2 = EDGE_CURVE ( 'NONE', #134, #78, #151, .T. ) ;
#3 = LINE ( 'NONE', #38, #1 ) ;
#4 = CC_DESIGN_DATE_AND_TIME_ASSIGNMENT ( #97, #169, ( #41 ) ) ;
#5 = ORIENTED_EDGE ( 'NONE', *, *, #230, .T. ) ;
#6 = CC_DESIGN_PERSON_AND_ORGANIZATION_ASSIGNMENT ( #229, #34, ( #41 ) ) ;
#7 = DIRECTION ( 'NONE',  ( -0.0000000000000000000, -0.0000000000000000000, -1.000000000000000000 ) ) ;
#8 = ORIENTED_EDGE ( 'NONE', *, *, #180, .T. ) ;
#9 = APPROVAL_ROLE ( '' ) ;
#10 = APPROVAL_PERSON_ORGANIZATION ( #100, #113, #89 ) ;
#11 = PERSON ( 'UNSPECIFIED', 'UNSPECIFIED', 'UNSPECIFIED', ('UNSPECIFIED'), ('UNSPECIFIED'), ('UNSPECIFIED') ) ;
#12 = EDGE_LOOP ( 'NONE', ( #27, #46, #43, #62 ) ) ;
#13 = PERSON_AND_ORGANIZATION ( #11, #203 ) ;
#14 = APPROVAL_STATUS ( 'not_yet_approved' ) ;
#15 = DIRECTION ( 'NONE',  ( -0.0000000000000000000, 0.0000000000000000000, 1.000000000000000000 ) ) ;
#16 = DIRECTION ( 'NONE',  ( 1.000000000000000000, 0.0000000000000000000, 0.0000000000000000000 ) ) ;
#17 = VECTOR ( 'NONE', #212, 1000.000000000000000 ) ;
#18 = ADVANCED_BREP_SHAPE_REPRESENTATION ( 'Web Model 85296_85300', ( #99, #205 ), #133 ) ;
#19 = ADVANCED_FACE ( 'NONE', ( #211 ), #110, .F. ) ;
#20 = PLANE ( 'NONE',  #182 ) ;
#21 = LINE ( 'NONE', #117, #165 ) ;
#22 = COORDINATED_UNIVERSAL_TIME_OFFSET ( 5, 0, .BEHIND. ) ;
#23 = FACE_OUTER_BOUND ( 'NONE', #171, .T. ) ;
#24 = PRODUCT_RELATED_PRODUCT_CATEGORY ( 'detail', '', ( #140 ) ) ;
#25 = VERTEX_POINT ( 'NONE', #85 ) ;
#26 = SECURITY_CLASSIFICATION_LEVEL ( 'unclassified' ) ;
#27 = ORIENTED_EDGE ( 'NONE', *, *, #120, .T. ) ;
#28 = APPROVAL_DATE_TIME ( #122, #113 ) ;
#29 = ADVANCED_FACE ( 'NONE', ( #233 ), #51, .F. ) ;
#30 = EDGE_LOOP ( 'NONE', ( #213, #68, #44, #118 ) ) ;
#31 = DATE_AND_TIME ( #123, #218 ) ;
#32 = ORIENTED_EDGE ( 'NONE', *, *, #210, .F. ) ;
#33 =( NAMED_UNIT ( * ) PLANE_ANGLE_UNIT ( ) SI_UNIT ( $, .RADIAN. ) );
#34 = PERSON_AND_ORGANIZATION_ROLE ( 'classification_officer' ) ;
#35 = CARTESIAN_POINT ( 'NONE',  ( 0.0000000000000000000, 0.0000000000000000000, 1.000000000000000000 ) ) ;
#36 = ADVANCED_FACE ( 'NONE', ( #23 ), #206, .F. ) ;
#37 = VECTOR ( 'NONE', #42, 1000.000000000000000 ) ;
#38 = CARTESIAN_POINT ( 'NONE',  ( -25.00000000000000000, -25.00000000000000000, 1.000000000000000000 ) ) ;
#39 = CARTESIAN_POINT ( 'NONE',  ( 24.99999999999999300, 25.00000000000000000, -1.000000000000000000 ) ) ;
#40 = VECTOR ( 'NONE', #234, 1000.000000000000000 ) ;
#41 = SECURITY_CLASSIFICATION ( '', '', #26 ) ;
#42 = DIRECTION ( 'NONE',  ( -0.0000000000000000000, -0.0000000000000000000, -1.000000000000000000 ) ) ;
#43 = ORIENTED_EDGE ( 'NONE', *, *, #220, .F. ) ;
#44 = ORIENTED_EDGE ( 'NONE', *, *, #104, .T. ) ;
#45 = LOCAL_TIME ( 16, 9, 27.00000000000000000, #138 ) ;
#46 = ORIENTED_EDGE ( 'NONE', *, *, #230, .F. ) ;
#47 = CALENDAR_DATE ( 2017, 1, 5 ) ;
#48 = ORIENTED_EDGE ( 'NONE', *, *, #120, .F. ) ;
#49 = DIRECTION ( 'NONE',  ( 0.0000000000000000000, -0.0000000000000000000, 1.000000000000000000 ) ) ;
#50 = SHAPE_DEFINITION_REPRESENTATION ( #119, #18 ) ;
#51 = PLANE ( 'NONE',  #69 ) ;
#52 = DIRECTION ( 'NONE',  ( 1.387778780781445700E-016, -1.000000000000000000, 0.0000000000000000000 ) ) ;
#53 = PLANE ( 'NONE',  #170 ) ;
#54 = VECTOR ( 'NONE', #162, 1000.000000000000000 ) ;
#55 = CC_DESIGN_PERSON_AND_ORGANIZATION_ASSIGNMENT ( #80, #77, ( #124 ) ) ;
#56 = CARTESIAN_POINT ( 'NONE',  ( 25.00000000000000000, -25.00000000000000000, -1.000000000000000000 ) ) ;
#57 = CARTESIAN_POINT ( 'NONE',  ( -25.00000000000000700, 25.00000000000000000, -1.000000000000000000 ) ) ;
#58 = LINE ( 'NONE', #195, #91 ) ;
#59 = VECTOR ( 'NONE', #192, 1000.000000000000000 ) ;
#60 = UNCERTAINTY_MEASURE_WITH_UNIT (LENGTH_MEASURE( 1.000000000000000100E-005 ), #219, 'distance_accuracy_value', 'NONE');
#61 = CC_DESIGN_PERSON_AND_ORGANIZATION_ASSIGNMENT ( #177, #93, ( #124 ) ) ;
#62 = ORIENTED_EDGE ( 'NONE', *, *, #210, .T. ) ;
#63 = APPROVAL_ROLE ( '' ) ;
#64 = ORIENTED_EDGE ( 'NONE', *, *, #92, .T. ) ;
#65 = LOCAL_TIME ( 16, 9, 27.00000000000000000, #158 ) ;
#66 = ORIENTED_EDGE ( 'NONE', *, *, #180, .F. ) ;
#67 = COORDINATED_UNIVERSAL_TIME_OFFSET ( 5, 0, .BEHIND. ) ;
#68 = ORIENTED_EDGE ( 'NONE', *, *, #2, .T. ) ;
#69 = AXIS2_PLACEMENT_3D ( 'NONE', #236, #72, #190 ) ;
#70 = DIRECTION ( 'NONE',  ( 0.0000000000000000000, -0.0000000000000000000, -1.000000000000000000 ) ) ;
#71 = LINE ( 'NONE', #174, #222 ) ;
#72 = DIRECTION ( 'NONE',  ( 1.000000000000000000, 1.387778780781445700E-016, -0.0000000000000000000 ) ) ;
#73 = CALENDAR_DATE ( 2017, 1, 5 ) ;
#74 = FACE_OUTER_BOUND ( 'NONE', #30, .T. ) ;
#75 = CC_DESIGN_APPROVAL ( #113, ( #124 ) ) ;
#76 = ORIENTED_EDGE ( 'NONE', *, *, #143, .F. ) ;
#77 = PERSON_AND_ORGANIZATION_ROLE ( 'design_supplier' ) ;
#78 = VERTEX_POINT ( 'NONE', #184 ) ;
#79 = DESIGN_CONTEXT ( 'detailed design', #152, 'design' ) ;
#80 = PERSON_AND_ORGANIZATION ( #11, #203 ) ;
#81 = AXIS2_PLACEMENT_3D ( 'NONE', #135, #105, #52 ) ;
#82 = VERTEX_POINT ( 'NONE', #56 ) ;
#83 = PERSON_AND_ORGANIZATION ( #11, #203 ) ;
#84 = VERTEX_POINT ( 'NONE', #57 ) ;
#85 = CARTESIAN_POINT ( 'NONE',  ( -25.00000000000000000, -25.00000000000000000, -1.000000000000000000 ) ) ;
#86 = CARTESIAN_POINT ( 'NONE',  ( 24.99999999999999300, 25.00000000000000000, 1.000000000000000000 ) ) ;
#87 = CARTESIAN_POINT ( 'NONE',  ( 25.00000000000000000, -25.00000000000000000, 1.000000000000000000 ) ) ;
#88 = FACE_OUTER_BOUND ( 'NONE', #101, .T. ) ;
#89 = APPROVAL_ROLE ( '' ) ;
#90 = APPLICATION_CONTEXT ( 'configuration controlled 3d designs of mechanical parts and assemblies' ) ;
#91 = VECTOR ( 'NONE', #145, 1000.000000000000000 ) ;
#92 = EDGE_CURVE ( 'NONE', #84, #25, #131, .T. ) ;
#93 = PERSON_AND_ORGANIZATION_ROLE ( 'creator' ) ;
#94 = AXIS2_PLACEMENT_3D ( 'NONE', #221, #148, #70 ) ;
#95 = EDGE_LOOP ( 'NONE', ( #231, #32, #193, #175 ) ) ;
#96 = ORIENTED_EDGE ( 'NONE', *, *, #2, .F. ) ;
#97 = DATE_AND_TIME ( #194, #45 ) ;
#98 = CARTESIAN_POINT ( 'NONE',  ( 24.99999999999999300, 25.00000000000000000, 1.000000000000000000 ) ) ;
#99 = MANIFOLD_SOLID_BREP ( 'Boss-Extrude1', #201 ) ;
#100 = PERSON_AND_ORGANIZATION ( #11, #203 ) ;
#101 = EDGE_LOOP ( 'NONE', ( #48, #76, #226, #66 ) ) ;
#102 = PERSON_AND_ORGANIZATION ( #11, #203 ) ;
#103 = APPLICATION_PROTOCOL_DEFINITION ( 'international standard', 'config_control_design', 1994, #152 ) ;
#104 = EDGE_CURVE ( 'NONE', #78, #227, #168, .T. ) ;
#105 = DIRECTION ( 'NONE',  ( -1.000000000000000000, -1.387778780781445700E-016, 0.0000000000000000000 ) ) ;
#106 = LINE ( 'NONE', #86, #17 ) ;
#107 = DIRECTION ( 'NONE',  ( 1.000000000000000000, 0.0000000000000000000, 0.0000000000000000000 ) ) ;
#108 = ADVANCED_FACE ( 'NONE', ( #74 ), #53, .T. ) ;
#109 = DIRECTION ( 'NONE',  ( -1.387778780781445700E-016, 1.000000000000000000, -0.0000000000000000000 ) ) ;
#110 = PLANE ( 'NONE',  #81 ) ;
#111 = LINE ( 'NONE', #98, #54 ) ;
#112 = APPROVAL_PERSON_ORGANIZATION ( #209, #173, #63 ) ;
#113 = APPROVAL ( #126, 'UNSPECIFIED' ) ;
#114 = VECTOR ( 'NONE', #204, 1000.000000000000000 ) ;
#115 = PERSON_AND_ORGANIZATION_ROLE ( 'design_owner' ) ;
#116 = MECHANICAL_CONTEXT ( 'NONE', #90, 'mechanical' ) ;
#117 = CARTESIAN_POINT ( 'NONE',  ( -25.00000000000000000, -25.00000000000000000, -1.000000000000000000 ) ) ;
#118 = ORIENTED_EDGE ( 'NONE', *, *, #132, .T. ) ;
#119 = PRODUCT_DEFINITION_SHAPE ( 'NONE', 'NONE',  #191 ) ;
#120 = EDGE_CURVE ( 'NONE', #82, #121, #188, .T. ) ;
#121 = VERTEX_POINT ( 'NONE', #172 ) ;
#122 = DATE_AND_TIME ( #216, #65 ) ;
#123 = CALENDAR_DATE ( 2017, 1, 5 ) ;
#124 = PRODUCT_DEFINITION_FORMATION_WITH_SPECIFIED_SOURCE ( 'ANY', '', #140, .NOT_KNOWN. ) ;
#125 = CARTESIAN_POINT ( 'NONE',  ( -25.00000000000000000, -25.00000000000000000, 1.000000000000000000 ) ) ;
#126 = APPROVAL_STATUS ( 'not_yet_approved' ) ;
#127 = ADVANCED_FACE ( 'NONE', ( #149 ), #20, .F. ) ;
#128 = CARTESIAN_POINT ( 'NONE',  ( -25.00000000000000700, 25.00000000000000000, 1.000000000000000000 ) ) ;
#129 = CC_DESIGN_DATE_AND_TIME_ASSIGNMENT ( #200, #164, ( #191 ) ) ;
#130 = APPROVAL_DATE_TIME ( #223, #173 ) ;
#131 = LINE ( 'NONE', #207, #40 ) ;
#132 = EDGE_CURVE ( 'NONE', #227, #137, #58, .T. ) ;
#133 =( GEOMETRIC_REPRESENTATION_CONTEXT ( 3 ) GLOBAL_UNCERTAINTY_ASSIGNED_CONTEXT ( ( #60 ) ) GLOBAL_UNIT_ASSIGNED_CONTEXT ( ( #219, #33, #197 ) ) REPRESENTATION_CONTEXT ( 'NONE', 'WORKASPACE' ) );
#134 = VERTEX_POINT ( 'NONE', #187 ) ;
#135 = CARTESIAN_POINT ( 'NONE',  ( 24.99999999999999300, 25.00000000000000000, 1.000000000000000000 ) ) ;
#136 = CARTESIAN_POINT ( 'NONE',  ( -25.00000000000000700, 25.00000000000000000, 1.000000000000000000 ) ) ;
#137 = VERTEX_POINT ( 'NONE', #163 ) ;
#138 = COORDINATED_UNIVERSAL_TIME_OFFSET ( 5, 0, .BEHIND. ) ;
#139 = LOCAL_TIME ( 16, 9, 27.00000000000000000, #232 ) ;
#140 = PRODUCT ( 'Web Model 85296_85300', 'Web Model 85296_85300', '', ( #116 ) ) ;
#141 = APPLICATION_PROTOCOL_DEFINITION ( 'international standard', 'config_control_design', 1994, #90 ) ;
#142 = DIRECTION ( 'NONE',  ( 0.0000000000000000000, 1.000000000000000000, 0.0000000000000000000 ) ) ;
#143 = EDGE_CURVE ( 'NONE', #25, #82, #21, .T. ) ;
#144 = DIRECTION ( 'NONE',  ( -1.000000000000000000, -0.0000000000000000000, -0.0000000000000000000 ) ) ;
#145 = DIRECTION ( 'NONE',  ( 1.000000000000000000, 0.0000000000000000000, 0.0000000000000000000 ) ) ;
#146 = PLANE ( 'NONE',  #199 ) ;
#147 = DIRECTION ( 'NONE',  ( 0.0000000000000000000, 0.0000000000000000000, 1.000000000000000000 ) ) ;
#148 = DIRECTION ( 'NONE',  ( 0.0000000000000000000, -1.000000000000000000, 0.0000000000000000000 ) ) ;
#149 = FACE_OUTER_BOUND ( 'NONE', #95, .T. ) ;
#150 = CARTESIAN_POINT ( 'NONE',  ( 0.0000000000000000000, 0.0000000000000000000, -1.000000000000000000 ) ) ;
#151 = LINE ( 'NONE', #136, #59 ) ;
#152 = APPLICATION_CONTEXT ( 'configuration controlled 3d designs of mechanical parts and assemblies' ) ;
#153 = CC_DESIGN_PERSON_AND_ORGANIZATION_ASSIGNMENT ( #83, #181, ( #191 ) ) ;
#154 = ORIENTED_EDGE ( 'NONE', *, *, #196, .T. ) ;
#155 = CARTESIAN_POINT ( 'NONE',  ( -25.00000000000000000, -25.00000000000000000, 1.000000000000000000 ) ) ;
#156 = DIRECTION ( 'NONE',  ( -0.0000000000000000000, 0.0000000000000000000, 1.000000000000000000 ) ) ;
#157 = ORIENTED_EDGE ( 'NONE', *, *, #167, .F. ) ;
#158 = COORDINATED_UNIVERSAL_TIME_OFFSET ( 5, 0, .BEHIND. ) ;
#159 = APPROVAL_PERSON_ORGANIZATION ( #13, #178, #9 ) ;
#160 = CC_DESIGN_APPROVAL ( #178, ( #191 ) ) ;
#161 = DIRECTION ( 'NONE',  ( 1.000000000000000000, 0.0000000000000000000, 0.0000000000000000000 ) ) ;
#162 = DIRECTION ( 'NONE',  ( -1.387778780781445700E-016, 1.000000000000000000, -0.0000000000000000000 ) ) ;
#163 = CARTESIAN_POINT ( 'NONE',  ( 25.00000000000000000, -25.00000000000000000, 1.000000000000000000 ) ) ;
#164 = DATE_TIME_ROLE ( 'creation_date' ) ;
#165 = VECTOR ( 'NONE', #16, 1000.000000000000000 ) ;
#166 = LOCAL_TIME ( 16, 9, 27.00000000000000000, #22 ) ;
#167 = EDGE_CURVE ( 'NONE', #227, #25, #3, .T. ) ;
#168 = LINE ( 'NONE', #128, #114 ) ;
#169 = DATE_TIME_ROLE ( 'classification_date' ) ;
#170 = AXIS2_PLACEMENT_3D ( 'NONE', #35, #15, #224 ) ;
#171 = EDGE_LOOP ( 'NONE', ( #8, #217, #96, #5 ) ) ;
#172 = CARTESIAN_POINT ( 'NONE',  ( 24.99999999999999300, 25.00000000000000000, -1.000000000000000000 ) ) ;
#173 = APPROVAL ( #14, 'UNSPECIFIED' ) ;
#174 = CARTESIAN_POINT ( 'NONE',  ( -25.00000000000000700, 25.00000000000000000, -1.000000000000000000 ) ) ;
#175 = ORIENTED_EDGE ( 'NONE', *, *, #167, .T. ) ;
#176 = CC_DESIGN_APPROVAL ( #173, ( #41 ) ) ;
#177 = PERSON_AND_ORGANIZATION ( #11, #203 ) ;
#178 = APPROVAL ( #228, 'UNSPECIFIED' ) ;
#179 = APPROVAL_DATE_TIME ( #31, #178 ) ;
#180 = EDGE_CURVE ( 'NONE', #121, #84, #71, .T. ) ;
#181 = PERSON_AND_ORGANIZATION_ROLE ( 'creator' ) ;
#182 = AXIS2_PLACEMENT_3D ( 'NONE', #155, #142, #49 ) ;
#183 = VECTOR ( 'NONE', #7, 1000.000000000000000 ) ;
#184 = CARTESIAN_POINT ( 'NONE',  ( -25.00000000000000700, 25.00000000000000000, 1.000000000000000000 ) ) ;
#185 = DIRECTION ( 'NONE',  ( -0.0000000000000000000, -0.0000000000000000000, -1.000000000000000000 ) ) ;
#186 = CARTESIAN_POINT ( 'NONE',  ( -25.00000000000000700, 25.00000000000000000, 1.000000000000000000 ) ) ;
#187 = CARTESIAN_POINT ( 'NONE',  ( 24.99999999999999300, 25.00000000000000000, 1.000000000000000000 ) ) ;
#188 = LINE ( 'NONE', #39, #225 ) ;
#189 = EDGE_LOOP ( 'NONE', ( #64, #157, #215, #154 ) ) ;
#190 = DIRECTION ( 'NONE',  ( -1.387778780781445700E-016, 1.000000000000000000, 0.0000000000000000000 ) ) ;
#191 = PRODUCT_DEFINITION ( 'UNKNOWN', '', #124, #79 ) ;
#192 = DIRECTION ( 'NONE',  ( -1.000000000000000000, -0.0000000000000000000, -0.0000000000000000000 ) ) ;
#193 = ORIENTED_EDGE ( 'NONE', *, *, #132, .F. ) ;
#194 = CALENDAR_DATE ( 2017, 1, 5 ) ;
#195 = CARTESIAN_POINT ( 'NONE',  ( -25.00000000000000000, -25.00000000000000000, 1.000000000000000000 ) ) ;
#196 = EDGE_CURVE ( 'NONE', #78, #84, #208, .T. ) ;
#197 =( NAMED_UNIT ( * ) SI_UNIT ( $, .STERADIAN. ) SOLID_ANGLE_UNIT ( ) );
#198 = ADVANCED_FACE ( 'NONE', ( #88 ), #146, .F. ) ;
#199 = AXIS2_PLACEMENT_3D ( 'NONE', #150, #156, #161 ) ;
#200 = DATE_AND_TIME ( #47, #139 ) ;
#201 = CLOSED_SHELL ( 'NONE', ( #19, #36, #29, #127, #108, #198 ) ) ;
#202 = CC_DESIGN_PERSON_AND_ORGANIZATION_ASSIGNMENT ( #102, #115, ( #140 ) ) ;
#203 = ORGANIZATION ( 'UNSPECIFIED', 'UNSPECIFIED', '' ) ;
#204 = DIRECTION ( 'NONE',  ( 1.387778780781445700E-016, -1.000000000000000000, 0.0000000000000000000 ) ) ;
#205 = AXIS2_PLACEMENT_3D ( 'NONE', #214, #147, #107 ) ;
#206 = PLANE ( 'NONE',  #94 ) ;
#207 = CARTESIAN_POINT ( 'NONE',  ( -25.00000000000000700, 25.00000000000000000, -1.000000000000000000 ) ) ;
#208 = LINE ( 'NONE', #186, #37 ) ;
#209 = PERSON_AND_ORGANIZATION ( #11, #203 ) ;
#210 = EDGE_CURVE ( 'NONE', #137, #82, #237, .T. ) ;
#211 = FACE_OUTER_BOUND ( 'NONE', #12, .T. ) ;
#212 = DIRECTION ( 'NONE',  ( -0.0000000000000000000, -0.0000000000000000000, -1.000000000000000000 ) ) ;
#213 = ORIENTED_EDGE ( 'NONE', *, *, #220, .T. ) ;
#214 = CARTESIAN_POINT ( 'NONE',  ( 0.0000000000000000000, 0.0000000000000000000, 0.0000000000000000000 ) ) ;
#215 = ORIENTED_EDGE ( 'NONE', *, *, #104, .F. ) ;
#216 = CALENDAR_DATE ( 2017, 1, 5 ) ;
#217 = ORIENTED_EDGE ( 'NONE', *, *, #196, .F. ) ;
#218 = LOCAL_TIME ( 16, 9, 27.00000000000000000, #67 ) ;
#219 =( LENGTH_UNIT ( ) NAMED_UNIT ( * ) SI_UNIT ( .MILLI., .METRE. ) );
#220 = EDGE_CURVE ( 'NONE', #137, #134, #111, .T. ) ;
#221 = CARTESIAN_POINT ( 'NONE',  ( -25.00000000000000700, 25.00000000000000000, 1.000000000000000000 ) ) ;
#222 = VECTOR ( 'NONE', #144, 1000.000000000000000 ) ;
#223 = DATE_AND_TIME ( #73, #166 ) ;
#224 = DIRECTION ( 'NONE',  ( 1.000000000000000000, 0.0000000000000000000, 0.0000000000000000000 ) ) ;
#225 = VECTOR ( 'NONE', #109, 1000.000000000000000 ) ;
#226 = ORIENTED_EDGE ( 'NONE', *, *, #92, .F. ) ;
#227 = VERTEX_POINT ( 'NONE', #125 ) ;
#228 = APPROVAL_STATUS ( 'not_yet_approved' ) ;
#229 = PERSON_AND_ORGANIZATION ( #11, #203 ) ;
#230 = EDGE_CURVE ( 'NONE', #134, #121, #106, .T. ) ;
#231 = ORIENTED_EDGE ( 'NONE', *, *, #143, .T. ) ;
#232 = COORDINATED_UNIVERSAL_TIME_OFFSET ( 5, 0, .BEHIND. ) ;
#233 = FACE_OUTER_BOUND ( 'NONE', #189, .T. ) ;
#234 = DIRECTION ( 'NONE',  ( 1.387778780781445700E-016, -1.000000000000000000, 0.0000000000000000000 ) ) ;
#235 = CC_DESIGN_SECURITY_CLASSIFICATION ( #41, ( #124 ) ) ;
#236 = CARTESIAN_POINT ( 'NONE',  ( -25.00000000000000700, 25.00000000000000000, 1.000000000000000000 ) ) ;
#237 = LINE ( 'NONE', #87, #183 ) ;
ENDSEC;
END-ISO-10303-21;
