ISO-10303-21;
HEADER;
FILE_DESCRIPTION (( 'STEP AP203' ),
    '1' );
FILE_NAME ('Web Model 68379_48900.step',
    '2017-03-01T19:07:51',
    ( '' ),
    ( '' ),
    'SwSTEP 2.0',
    'SolidWorks 2016',
    '' );
FILE_SCHEMA (( 'CONFIG_CONTROL_DESIGN' ));
ENDSEC;

DATA;
#1 = VECTOR ( 'NONE', #223, 1000.000000000000000 ) ;
#2 = LINE ( 'NONE', #204, #50 ) ;
#3 = PLANE ( 'NONE',  #182 ) ;
#4 = ORIENTED_EDGE ( 'NONE', *, *, #147, .F. ) ;
#5 = CARTESIAN_POINT ( 'NONE',  ( 37.50000000000000000, 37.49999999999999300, 3.000000000000000000 ) ) ;
#6 = CARTESIAN_POINT ( 'NONE',  ( 37.50000000000000000, -37.49999999999999300, 0.0000000000000000000 ) ) ;
#7 = CARTESIAN_POINT ( 'NONE',  ( 37.50000000000000000, 37.49999999999999300, 3.000000000000000000 ) ) ;
#8 = DATE_AND_TIME ( #61, #93 ) ;
#9 = AXIS2_PLACEMENT_3D ( 'NONE', #128, #89, #21 ) ;
#10 = PERSON_AND_ORGANIZATION ( #168, #138 ) ;
#11 = PERSON_AND_ORGANIZATION_ROLE ( 'classification_officer' ) ;
#12 = DIRECTION ( 'NONE',  ( 1.000000000000000000, 1.850371707708594300E-016, -0.0000000000000000000 ) ) ;
#13 = EDGE_CURVE ( 'NONE', #198, #129, #184, .T. ) ;
#14 = CALENDAR_DATE ( 2017, 1, 3 ) ;
#15 = CARTESIAN_POINT ( 'NONE',  ( -37.50000000000000700, 37.49999999999999300, 3.000000000000000000 ) ) ;
#16 = LOCAL_TIME ( 14, 7, 51.00000000000000000, #100 ) ;
#17 = PERSON_AND_ORGANIZATION ( #168, #138 ) ;
#18 = PLANE ( 'NONE',  #157 ) ;
#19 = ORIENTED_EDGE ( 'NONE', *, *, #143, .T. ) ;
#20 = APPROVAL_PERSON_ORGANIZATION ( #177, #96, #179 ) ;
#21 = DIRECTION ( 'NONE',  ( 0.0000000000000000000, 0.0000000000000000000, 1.000000000000000000 ) ) ;
#22 = AXIS2_PLACEMENT_3D ( 'NONE', #99, #165, #69 ) ;
#23 = LINE ( 'NONE', #145, #171 ) ;
#24 = DIRECTION ( 'NONE',  ( -1.000000000000000000, 0.0000000000000000000, 0.0000000000000000000 ) ) ;
#25 = VECTOR ( 'NONE', #124, 1000.000000000000000 ) ;
#26 = ORIENTED_EDGE ( 'NONE', *, *, #147, .T. ) ;
#27 = DIRECTION ( 'NONE',  ( 0.0000000000000000000, -1.000000000000000000, 0.0000000000000000000 ) ) ;
#28 = AXIS2_PLACEMENT_3D ( 'NONE', #67, #203, #36 ) ;
#29 = DATE_AND_TIME ( #14, #174 ) ;
#30 = CC_DESIGN_PERSON_AND_ORGANIZATION_ASSIGNMENT ( #17, #186, ( #190 ) ) ;
#31 = EDGE_LOOP ( 'NONE', ( #90, #170, #77, #64 ) ) ;
#32 = DIRECTION ( 'NONE',  ( 0.0000000000000000000, 0.0000000000000000000, -1.000000000000000000 ) ) ;
#33 = VECTOR ( 'NONE', #232, 1000.000000000000000 ) ;
#34 = DIRECTION ( 'NONE',  ( -0.0000000000000000000, -0.0000000000000000000, -1.000000000000000000 ) ) ;
#35 = FACE_OUTER_BOUND ( 'NONE', #31, .T. ) ;
#36 = DIRECTION ( 'NONE',  ( -1.000000000000000000, -1.850371707708594100E-016, 0.0000000000000000000 ) ) ;
#37 = CARTESIAN_POINT ( 'NONE',  ( -37.50000000000000000, -37.50000000000000700, 3.000000000000000000 ) ) ;
#38 = CARTESIAN_POINT ( 'NONE',  ( 37.50000000000000000, 37.49999999999999300, 0.0000000000000000000 ) ) ;
#39 = DIRECTION ( 'NONE',  ( 1.000000000000000000, 9.251858538542970300E-017, -0.0000000000000000000 ) ) ;
#40 = PERSON_AND_ORGANIZATION ( #168, #138 ) ;
#41 = PRODUCT_DEFINITION ( 'UNKNOWN', '', #81, #102 ) ;
#42 = APPROVAL_STATUS ( 'not_yet_approved' ) ;
#43 = VERTEX_POINT ( 'NONE', #72 ) ;
#44 = APPROVAL_PERSON_ORGANIZATION ( #10, #51, #115 ) ;
#45 = VECTOR ( 'NONE', #151, 1000.000000000000000 ) ;
#46 = DIRECTION ( 'NONE',  ( -0.0000000000000000000, -0.0000000000000000000, -1.000000000000000000 ) ) ;
#47 = VECTOR ( 'NONE', #233, 1000.000000000000000 ) ;
#48 = CC_DESIGN_APPROVAL ( #51, ( #41 ) ) ;
#49 = APPLICATION_CONTEXT ( 'configuration controlled 3d designs of mechanical parts and assemblies' ) ;
#50 = VECTOR ( 'NONE', #92, 1000.000000000000000 ) ;
#51 = APPROVAL ( #228, 'UNSPECIFIED' ) ;
#52 = CARTESIAN_POINT ( 'NONE',  ( -37.50000000000000700, 37.49999999999999300, 3.000000000000000000 ) ) ;
#53 = DATE_AND_TIME ( #205, #209 ) ;
#54 = LINE ( 'NONE', #195, #180 ) ;
#55 = PERSON_AND_ORGANIZATION ( #168, #138 ) ;
#56 = CARTESIAN_POINT ( 'NONE',  ( -37.50000000000000000, -37.50000000000000700, 0.0000000000000000000 ) ) ;
#57 = LINE ( 'NONE', #158, #216 ) ;
#58 = CC_DESIGN_PERSON_AND_ORGANIZATION_ASSIGNMENT ( #172, #104, ( #41 ) ) ;
#59 = FACE_OUTER_BOUND ( 'NONE', #152, .T. ) ;
#60 = LINE ( 'NONE', #6, #33 ) ;
#61 = CALENDAR_DATE ( 2017, 1, 3 ) ;
#62 = ORIENTED_EDGE ( 'NONE', *, *, #160, .T. ) ;
#63 = EDGE_LOOP ( 'NONE', ( #74, #133, #183, #226 ) ) ;
#64 = ORIENTED_EDGE ( 'NONE', *, *, #193, .F. ) ;
#65 = PLANE ( 'NONE',  #9 ) ;
#66 = VECTOR ( 'NONE', #110, 1000.000000000000000 ) ;
#67 = CARTESIAN_POINT ( 'NONE',  ( 37.50000000000000000, -37.49999999999999300, 3.000000000000000000 ) ) ;
#68 = FACE_OUTER_BOUND ( 'NONE', #200, .T. ) ;
#69 = DIRECTION ( 'NONE',  ( 1.000000000000000000, 0.0000000000000000000, 0.0000000000000000000 ) ) ;
#70 = CC_DESIGN_DATE_AND_TIME_ASSIGNMENT ( #221, #225, ( #41 ) ) ;
#71 =( LENGTH_UNIT ( ) NAMED_UNIT ( * ) SI_UNIT ( .MILLI., .METRE. ) );
#72 = CARTESIAN_POINT ( 'NONE',  ( -37.50000000000000000, -37.50000000000000700, 3.000000000000000000 ) ) ;
#73 = APPROVAL_ROLE ( '' ) ;
#74 = ORIENTED_EDGE ( 'NONE', *, *, #83, .T. ) ;
#75 = ORIENTED_EDGE ( 'NONE', *, *, #83, .F. ) ;
#76 = ORIENTED_EDGE ( 'NONE', *, *, #160, .F. ) ;
#77 = ORIENTED_EDGE ( 'NONE', *, *, #143, .F. ) ;
#78 = ORIENTED_EDGE ( 'NONE', *, *, #193, .T. ) ;
#79 = ADVANCED_FACE ( 'NONE', ( #59 ), #65, .F. ) ;
#80 = FACE_OUTER_BOUND ( 'NONE', #63, .T. ) ;
#81 = PRODUCT_DEFINITION_FORMATION_WITH_SPECIFIED_SOURCE ( 'ANY', '', #190, .NOT_KNOWN. ) ;
#82 = VERTEX_POINT ( 'NONE', #237 ) ;
#83 = EDGE_CURVE ( 'NONE', #218, #43, #220, .T. ) ;
#84 = DIRECTION ( 'NONE',  ( 0.0000000000000000000, 0.0000000000000000000, -1.000000000000000000 ) ) ;
#85 = DATE_TIME_ROLE ( 'classification_date' ) ;
#86 = DIRECTION ( 'NONE',  ( -1.000000000000000000, 0.0000000000000000000, 0.0000000000000000000 ) ) ;
#87 = SHAPE_DEFINITION_REPRESENTATION ( #224, #103 ) ;
#88 = CARTESIAN_POINT ( 'NONE',  ( -37.50000000000000700, 37.49999999999999300, 0.0000000000000000000 ) ) ;
#89 = DIRECTION ( 'NONE',  ( -1.000000000000000000, 0.0000000000000000000, 0.0000000000000000000 ) ) ;
#90 = ORIENTED_EDGE ( 'NONE', *, *, #108, .F. ) ;
#91 = VERTEX_POINT ( 'NONE', #161 ) ;
#92 = DIRECTION ( 'NONE',  ( -0.0000000000000000000, -0.0000000000000000000, -1.000000000000000000 ) ) ;
#93 = LOCAL_TIME ( 14, 7, 51.00000000000000000, #227 ) ;
#94 = CALENDAR_DATE ( 2017, 1, 3 ) ;
#95 = ORIENTED_EDGE ( 'NONE', *, *, #13, .F. ) ;
#96 = APPROVAL ( #126, 'UNSPECIFIED' ) ;
#97 = VECTOR ( 'NONE', #24, 1000.000000000000000 ) ;
#98 = EDGE_CURVE ( 'NONE', #43, #198, #57, .T. ) ;
#99 = CARTESIAN_POINT ( 'NONE',  ( 0.0000000000000000000, 0.0000000000000000000, 0.0000000000000000000 ) ) ;
#100 = COORDINATED_UNIVERSAL_TIME_OFFSET ( 5, 0, .BEHIND. ) ;
#101 = EDGE_LOOP ( 'NONE', ( #173, #196, #75, #62 ) ) ;
#102 = DESIGN_CONTEXT ( 'detailed design', #142, 'design' ) ;
#103 = ADVANCED_BREP_SHAPE_REPRESENTATION ( 'Web Model 68379_48900', ( #112, #22 ), #197 ) ;
#104 = PERSON_AND_ORGANIZATION_ROLE ( 'creator' ) ;
#105 = PLANE ( 'NONE',  #127 ) ;
#106 = CARTESIAN_POINT ( 'NONE',  ( 37.50000000000000000, 37.49999999999999300, 0.0000000000000000000 ) ) ;
#107 = CC_DESIGN_APPROVAL ( #96, ( #81 ) ) ;
#108 = EDGE_CURVE ( 'NONE', #82, #91, #231, .T. ) ;
#109 = COORDINATED_UNIVERSAL_TIME_OFFSET ( 5, 0, .BEHIND. ) ;
#110 = DIRECTION ( 'NONE',  ( 9.251858538542971600E-017, -1.000000000000000000, 0.0000000000000000000 ) ) ;
#111 = VERTEX_POINT ( 'NONE', #38 ) ;
#112 = MANIFOLD_SOLID_BREP ( 'Extrude1', #211 ) ;
#113 = DIRECTION ( 'NONE',  ( -1.000000000000000000, 0.0000000000000000000, -0.0000000000000000000 ) ) ;
#114 = ADVANCED_FACE ( 'NONE', ( #68 ), #230, .F. ) ;
#115 = APPROVAL_ROLE ( '' ) ;
#116 = APPLICATION_PROTOCOL_DEFINITION ( 'international standard', 'config_control_design', 1994, #142 ) ;
#117 = CC_DESIGN_PERSON_AND_ORGANIZATION_ASSIGNMENT ( #55, #136, ( #81 ) ) ;
#118 = EDGE_CURVE ( 'NONE', #111, #82, #162, .T. ) ;
#119 = MECHANICAL_CONTEXT ( 'NONE', #49, 'mechanical' ) ;
#120 = CARTESIAN_POINT ( 'NONE',  ( 37.50000000000000000, 37.49999999999999300, 3.000000000000000000 ) ) ;
#121 = PERSON_AND_ORGANIZATION_ROLE ( 'design_supplier' ) ;
#122 = EDGE_LOOP ( 'NONE', ( #137, #76, #214, #187 ) ) ;
#123 = APPROVAL_DATE_TIME ( #53, #51 ) ;
#124 = DIRECTION ( 'NONE',  ( -0.0000000000000000000, -0.0000000000000000000, -1.000000000000000000 ) ) ;
#125 = CARTESIAN_POINT ( 'NONE',  ( 37.50000000000000000, -37.49999999999999300, 3.000000000000000000 ) ) ;
#126 = APPROVAL_STATUS ( 'not_yet_approved' ) ;
#127 = AXIS2_PLACEMENT_3D ( 'NONE', #37, #84, #185 ) ;
#128 = CARTESIAN_POINT ( 'NONE',  ( 37.50000000000000000, 37.49999999999999300, 3.000000000000000000 ) ) ;
#129 = VERTEX_POINT ( 'NONE', #120 ) ;
#130 = COORDINATED_UNIVERSAL_TIME_OFFSET ( 5, 0, .BEHIND. ) ;
#131 = FACE_OUTER_BOUND ( 'NONE', #122, .T. ) ;
#132 = CC_DESIGN_PERSON_AND_ORGANIZATION_ASSIGNMENT ( #135, #121, ( #81 ) ) ;
#133 = ORIENTED_EDGE ( 'NONE', *, *, #98, .T. ) ;
#134 = EDGE_CURVE ( 'NONE', #129, #218, #54, .T. ) ;
#135 = PERSON_AND_ORGANIZATION ( #168, #138 ) ;
#136 = PERSON_AND_ORGANIZATION_ROLE ( 'creator' ) ;
#137 = ORIENTED_EDGE ( 'NONE', *, *, #118, .T. ) ;
#138 = ORGANIZATION ( 'UNSPECIFIED', 'UNSPECIFIED', '' ) ;
#139 = APPROVAL_DATE_TIME ( #167, #96 ) ;
#140 = CALENDAR_DATE ( 2017, 1, 3 ) ;
#141 = CARTESIAN_POINT ( 'NONE',  ( 37.50000000000000000, 37.49999999999999300, 3.000000000000000000 ) ) ;
#142 = APPLICATION_CONTEXT ( 'configuration controlled 3d designs of mechanical parts and assemblies' ) ;
#143 = EDGE_CURVE ( 'NONE', #234, #111, #212, .T. ) ;
#144 = CARTESIAN_POINT ( 'NONE',  ( 37.50000000000000000, -37.49999999999999300, 3.000000000000000000 ) ) ;
#145 = CARTESIAN_POINT ( 'NONE',  ( -37.50000000000000000, -37.50000000000000700, 3.000000000000000000 ) ) ;
#146 = SECURITY_CLASSIFICATION ( '', '', #207 ) ;
#147 = EDGE_CURVE ( 'NONE', #198, #234, #156, .T. ) ;
#148 = APPROVAL_DATE_TIME ( #8, #191 ) ;
#149 = UNCERTAINTY_MEASURE_WITH_UNIT (LENGTH_MEASURE( 1.000000000000000100E-005 ), #71, 'distance_accuracy_value', 'NONE');
#150 = CARTESIAN_POINT ( 'NONE',  ( 37.50000000000000000, -37.49999999999999300, 0.0000000000000000000 ) ) ;
#151 = DIRECTION ( 'NONE',  ( -0.0000000000000000000, 1.000000000000000000, -0.0000000000000000000 ) ) ;
#152 = EDGE_LOOP ( 'NONE', ( #19, #194, #95, #26 ) ) ;
#153 = LOCAL_TIME ( 14, 7, 51.00000000000000000, #109 ) ;
#154 = VECTOR ( 'NONE', #46, 1000.000000000000000 ) ;
#155 = ADVANCED_FACE ( 'NONE', ( #80 ), #105, .F. ) ;
#156 = LINE ( 'NONE', #144, #25 ) ;
#157 = AXIS2_PLACEMENT_3D ( 'NONE', #56, #32, #113 ) ;
#158 = CARTESIAN_POINT ( 'NONE',  ( 37.50000000000000000, -37.49999999999999300, 3.000000000000000000 ) ) ;
#159 = CC_DESIGN_PERSON_AND_ORGANIZATION_ASSIGNMENT ( #229, #11, ( #146 ) ) ;
#160 = EDGE_CURVE ( 'NONE', #218, #82, #2, .T. ) ;
#161 = CARTESIAN_POINT ( 'NONE',  ( -37.50000000000000000, -37.50000000000000700, 0.0000000000000000000 ) ) ;
#162 = LINE ( 'NONE', #189, #97 ) ;
#163 = COORDINATED_UNIVERSAL_TIME_OFFSET ( 5, 0, .BEHIND. ) ;
#164 = DIRECTION ( 'NONE',  ( 0.0000000000000000000, -0.0000000000000000000, -1.000000000000000000 ) ) ;
#165 = DIRECTION ( 'NONE',  ( 0.0000000000000000000, 0.0000000000000000000, 1.000000000000000000 ) ) ;
#166 = APPLICATION_PROTOCOL_DEFINITION ( 'international standard', 'config_control_design', 1994, #49 ) ;
#167 = DATE_AND_TIME ( #94, #16 ) ;
#168 = PERSON ( 'UNSPECIFIED', 'UNSPECIFIED', 'UNSPECIFIED', ('UNSPECIFIED'), ('UNSPECIFIED'), ('UNSPECIFIED') ) ;
#169 =( NAMED_UNIT ( * ) SI_UNIT ( $, .STERADIAN. ) SOLID_ANGLE_UNIT ( ) );
#170 = ORIENTED_EDGE ( 'NONE', *, *, #118, .F. ) ;
#171 = VECTOR ( 'NONE', #34, 1000.000000000000000 ) ;
#172 = PERSON_AND_ORGANIZATION ( #168, #138 ) ;
#173 = ORIENTED_EDGE ( 'NONE', *, *, #108, .T. ) ;
#174 = LOCAL_TIME ( 14, 7, 51.00000000000000000, #163 ) ;
#175 = CC_DESIGN_DATE_AND_TIME_ASSIGNMENT ( #29, #85, ( #146 ) ) ;
#176 = EDGE_CURVE ( 'NONE', #129, #111, #192, .T. ) ;
#177 = PERSON_AND_ORGANIZATION ( #168, #138 ) ;
#178 = ADVANCED_FACE ( 'NONE', ( #35 ), #18, .T. ) ;
#179 = APPROVAL_ROLE ( '' ) ;
#180 = VECTOR ( 'NONE', #86, 1000.000000000000000 ) ;
#181 =( NAMED_UNIT ( * ) PLANE_ANGLE_UNIT ( ) SI_UNIT ( $, .RADIAN. ) );
#182 = AXIS2_PLACEMENT_3D ( 'NONE', #199, #39, #188 ) ;
#183 = ORIENTED_EDGE ( 'NONE', *, *, #13, .T. ) ;
#184 = LINE ( 'NONE', #141, #47 ) ;
#185 = DIRECTION ( 'NONE',  ( -1.000000000000000000, 0.0000000000000000000, -0.0000000000000000000 ) ) ;
#186 = PERSON_AND_ORGANIZATION_ROLE ( 'design_owner' ) ;
#187 = ORIENTED_EDGE ( 'NONE', *, *, #176, .T. ) ;
#188 = DIRECTION ( 'NONE',  ( -9.251858538542970300E-017, 1.000000000000000000, 0.0000000000000000000 ) ) ;
#189 = CARTESIAN_POINT ( 'NONE',  ( 37.50000000000000000, 37.49999999999999300, 0.0000000000000000000 ) ) ;
#190 = PRODUCT ( 'Web Model 68379_48900', 'Web Model 68379_48900', '', ( #119 ) ) ;
#191 = APPROVAL ( #42, 'UNSPECIFIED' ) ;
#192 = LINE ( 'NONE', #7, #154 ) ;
#193 = EDGE_CURVE ( 'NONE', #91, #234, #60, .T. ) ;
#194 = ORIENTED_EDGE ( 'NONE', *, *, #176, .F. ) ;
#195 = CARTESIAN_POINT ( 'NONE',  ( 37.50000000000000000, 37.49999999999999300, 3.000000000000000000 ) ) ;
#196 = ORIENTED_EDGE ( 'NONE', *, *, #202, .F. ) ;
#197 =( GEOMETRIC_REPRESENTATION_CONTEXT ( 3 ) GLOBAL_UNCERTAINTY_ASSIGNED_CONTEXT ( ( #149 ) ) GLOBAL_UNIT_ASSIGNED_CONTEXT ( ( #71, #181, #169 ) ) REPRESENTATION_CONTEXT ( 'NONE', 'WORKASPACE' ) );
#198 = VERTEX_POINT ( 'NONE', #125 ) ;
#199 = CARTESIAN_POINT ( 'NONE',  ( -37.50000000000000700, 37.49999999999999300, 3.000000000000000000 ) ) ;
#200 = EDGE_LOOP ( 'NONE', ( #78, #4, #215, #206 ) ) ;
#201 = CC_DESIGN_APPROVAL ( #191, ( #146 ) ) ;
#202 = EDGE_CURVE ( 'NONE', #43, #91, #23, .T. ) ;
#203 = DIRECTION ( 'NONE',  ( -1.850371707708594100E-016, 1.000000000000000000, 0.0000000000000000000 ) ) ;
#204 = CARTESIAN_POINT ( 'NONE',  ( -37.50000000000000700, 37.49999999999999300, 3.000000000000000000 ) ) ;
#205 = CALENDAR_DATE ( 2017, 1, 3 ) ;
#206 = ORIENTED_EDGE ( 'NONE', *, *, #202, .T. ) ;
#207 = SECURITY_CLASSIFICATION_LEVEL ( 'unclassified' ) ;
#208 = FACE_OUTER_BOUND ( 'NONE', #101, .T. ) ;
#209 = LOCAL_TIME ( 14, 7, 51.00000000000000000, #130 ) ;
#210 = AXIS2_PLACEMENT_3D ( 'NONE', #5, #27, #164 ) ;
#211 = CLOSED_SHELL ( 'NONE', ( #213, #114, #79, #219, #155, #178 ) ) ;
#212 = LINE ( 'NONE', #106, #45 ) ;
#213 = ADVANCED_FACE ( 'NONE', ( #208 ), #3, .F. ) ;
#214 = ORIENTED_EDGE ( 'NONE', *, *, #134, .F. ) ;
#215 = ORIENTED_EDGE ( 'NONE', *, *, #98, .F. ) ;
#216 = VECTOR ( 'NONE', #12, 1000.000000000000000 ) ;
#217 = CC_DESIGN_SECURITY_CLASSIFICATION ( #146, ( #81 ) ) ;
#218 = VERTEX_POINT ( 'NONE', #52 ) ;
#219 = ADVANCED_FACE ( 'NONE', ( #131 ), #222, .F. ) ;
#220 = LINE ( 'NONE', #15, #66 ) ;
#221 = DATE_AND_TIME ( #140, #153 ) ;
#222 = PLANE ( 'NONE',  #210 ) ;
#223 = DIRECTION ( 'NONE',  ( 9.251858538542971600E-017, -1.000000000000000000, 0.0000000000000000000 ) ) ;
#224 = PRODUCT_DEFINITION_SHAPE ( 'NONE', 'NONE',  #41 ) ;
#225 = DATE_TIME_ROLE ( 'creation_date' ) ;
#226 = ORIENTED_EDGE ( 'NONE', *, *, #134, .T. ) ;
#227 = COORDINATED_UNIVERSAL_TIME_OFFSET ( 5, 0, .BEHIND. ) ;
#228 = APPROVAL_STATUS ( 'not_yet_approved' ) ;
#229 = PERSON_AND_ORGANIZATION ( #168, #138 ) ;
#230 = PLANE ( 'NONE',  #28 ) ;
#231 = LINE ( 'NONE', #88, #1 ) ;
#232 = DIRECTION ( 'NONE',  ( 1.000000000000000000, 1.850371707708594300E-016, -0.0000000000000000000 ) ) ;
#233 = DIRECTION ( 'NONE',  ( -0.0000000000000000000, 1.000000000000000000, -0.0000000000000000000 ) ) ;
#234 = VERTEX_POINT ( 'NONE', #150 ) ;
#235 = PRODUCT_RELATED_PRODUCT_CATEGORY ( 'detail', '', ( #190 ) ) ;
#236 = APPROVAL_PERSON_ORGANIZATION ( #40, #191, #73 ) ;
#237 = CARTESIAN_POINT ( 'NONE',  ( -37.50000000000000700, 37.49999999999999300, 0.0000000000000000000 ) ) ;
ENDSEC;
END-ISO-10303-21;
