ISO-10303-21;
HEADER;
FILE_DESCRIPTION (( 'STEP AP203' ),
    '1' );
FILE_NAME ('Web Model 83105.STEP',
    '2017-02-01T15:10:29',
    ( '' ),
    ( '' ),
    'SwSTEP 2.0',
    'SolidWorks 2016',
    '' );
FILE_SCHEMA (( 'CONFIG_CONTROL_DESIGN' ));
ENDSEC;

DATA;
#1 = DIRECTION ( 'NONE',  ( 1.000000000000000000, 0.0000000000000000000, 0.0000000000000000000 ) ) ;
#2 = ADVANCED_FACE ( 'NONE', ( #13 ), #37, .F. ) ;
#3 = VERTEX_POINT ( 'NONE', #103 ) ;
#4 = COORDINATED_UNIVERSAL_TIME_OFFSET ( 5, 0, .BEHIND. ) ;
#5 = ORIENTED_EDGE ( 'NONE', *, *, #27, .F. ) ;
#6 = DATE_AND_TIME ( #147, #79 ) ;
#7 = PERSON_AND_ORGANIZATION ( #162, #171 ) ;
#8 =( NAMED_UNIT ( * ) PLANE_ANGLE_UNIT ( ) SI_UNIT ( $, .RADIAN. ) );
#9 = CIRCLE ( 'NONE', #131, 20.00000000000000000 ) ;
#10 = APPROVAL_ROLE ( '' ) ;
#11 = APPROVAL_ROLE ( '' ) ;
#12 = CARTESIAN_POINT ( 'NONE',  ( 0.0000000000000000000, 0.0000000000000000000, 0.2000000000000000100 ) ) ;
#13 = FACE_OUTER_BOUND ( 'NONE', #29, .T. ) ;
#14 = PRODUCT ( 'Web Model 83105', 'Web Model 83105', '', ( #66 ) ) ;
#15 = DATE_AND_TIME ( #23, #32 ) ;
#16 = CYLINDRICAL_SURFACE ( 'NONE', #52, 20.00000000000000000 ) ;
#17 = LINE ( 'NONE', #34, #88 ) ;
#18 = APPROVAL_PERSON_ORGANIZATION ( #7, #160, #11 ) ;
#19 = DATE_AND_TIME ( #136, #112 ) ;
#20 = CIRCLE ( 'NONE', #143, 20.00000000000000000 ) ;
#21 = COORDINATED_UNIVERSAL_TIME_OFFSET ( 5, 0, .BEHIND. ) ;
#22 = ADVANCED_FACE ( 'NONE', ( #46 ), #77, .T. ) ;
#23 = CALENDAR_DATE ( 2017, 1, 2 ) ;
#24 = SECURITY_CLASSIFICATION_LEVEL ( 'unclassified' ) ;
#25 = CC_DESIGN_APPROVAL ( #160, ( #153 ) ) ;
#26 = APPROVAL_STATUS ( 'not_yet_approved' ) ;
#27 = EDGE_CURVE ( 'NONE', #141, #3, #17, .T. ) ;
#28 = FACE_OUTER_BOUND ( 'NONE', #146, .T. ) ;
#29 = EDGE_LOOP ( 'NONE', ( #145, #113 ) ) ;
#30 = PRODUCT_DEFINITION_SHAPE ( 'NONE', 'NONE',  #59 ) ;
#31 = CC_DESIGN_PERSON_AND_ORGANIZATION_ASSIGNMENT ( #89, #56, ( #14 ) ) ;
#32 = LOCAL_TIME ( 10, 10, 29.00000000000000000, #4 ) ;
#33 = APPROVAL_DATE_TIME ( #19, #71 ) ;
#34 = CARTESIAN_POINT ( 'NONE',  ( -20.00000000000000000, 0.0000000000000000000, 0.2000000000000000100 ) ) ;
#35 = CC_DESIGN_PERSON_AND_ORGANIZATION_ASSIGNMENT ( #156, #107, ( #153 ) ) ;
#36 = PRODUCT_RELATED_PRODUCT_CATEGORY ( 'detail', '', ( #14 ) ) ;
#37 = PLANE ( 'NONE',  #72 ) ;
#38 = DIRECTION ( 'NONE',  ( -1.000000000000000000, 0.0000000000000000000, 0.0000000000000000000 ) ) ;
#39 = DIRECTION ( 'NONE',  ( 0.0000000000000000000, 0.0000000000000000000, 1.000000000000000000 ) ) ;
#40 = DIRECTION ( 'NONE',  ( 1.000000000000000000, 0.0000000000000000000, 0.0000000000000000000 ) ) ;
#41 = APPROVAL_STATUS ( 'not_yet_approved' ) ;
#42 = CIRCLE ( 'NONE', #133, 20.00000000000000000 ) ;
#43 = PERSON_AND_ORGANIZATION ( #162, #171 ) ;
#44 = DATE_AND_TIME ( #154, #81 ) ;
#45 = CC_DESIGN_DATE_AND_TIME_ASSIGNMENT ( #15, #168, ( #144 ) ) ;
#46 = FACE_OUTER_BOUND ( 'NONE', #173, .T. ) ;
#47 = EDGE_CURVE ( 'NONE', #3, #58, #9, .T. ) ;
#48 = PERSON_AND_ORGANIZATION ( #162, #171 ) ;
#49 = CLOSED_SHELL ( 'NONE', ( #93, #127, #22, #2 ) ) ;
#50 = ORIENTED_EDGE ( 'NONE', *, *, #47, .T. ) ;
#51 = DIRECTION ( 'NONE',  ( 1.000000000000000000, 0.0000000000000000000, -0.0000000000000000000 ) ) ;
#52 = AXIS2_PLACEMENT_3D ( 'NONE', #117, #139, #60 ) ;
#53 = CYLINDRICAL_SURFACE ( 'NONE', #169, 20.00000000000000000 ) ;
#54 = CARTESIAN_POINT ( 'NONE',  ( 0.0000000000000000000, 0.0000000000000000000, 0.2000000000000000100 ) ) ;
#55 = DIRECTION ( 'NONE',  ( -0.0000000000000000000, -0.0000000000000000000, -1.000000000000000000 ) ) ;
#56 = PERSON_AND_ORGANIZATION_ROLE ( 'design_owner' ) ;
#57 = CC_DESIGN_SECURITY_CLASSIFICATION ( #144, ( #153 ) ) ;
#58 = VERTEX_POINT ( 'NONE', #74 ) ;
#59 = PRODUCT_DEFINITION ( 'UNKNOWN', '', #153, #104 ) ;
#60 = DIRECTION ( 'NONE',  ( -1.000000000000000000, 0.0000000000000000000, 0.0000000000000000000 ) ) ;
#61 = CC_DESIGN_PERSON_AND_ORGANIZATION_ASSIGNMENT ( #43, #67, ( #144 ) ) ;
#62 = DIRECTION ( 'NONE',  ( -0.0000000000000000000, -0.0000000000000000000, -1.000000000000000000 ) ) ;
#63 = VECTOR ( 'NONE', #62, 1000.000000000000000 ) ;
#64 =( NAMED_UNIT ( * ) SI_UNIT ( $, .STERADIAN. ) SOLID_ANGLE_UNIT ( ) );
#65 = CIRCLE ( 'NONE', #111, 20.00000000000000000 ) ;
#66 = MECHANICAL_CONTEXT ( 'NONE', #92, 'mechanical' ) ;
#67 = PERSON_AND_ORGANIZATION_ROLE ( 'classification_officer' ) ;
#68 = ORIENTED_EDGE ( 'NONE', *, *, #119, .F. ) ;
#69 = VERTEX_POINT ( 'NONE', #137 ) ;
#70 = APPROVAL_PERSON_ORGANIZATION ( #135, #84, #10 ) ;
#71 = APPROVAL ( #82, 'UNSPECIFIED' ) ;
#72 = AXIS2_PLACEMENT_3D ( 'NONE', #164, #118, #51 ) ;
#73 = APPROVAL_DATE_TIME ( #6, #84 ) ;
#74 = CARTESIAN_POINT ( 'NONE',  ( 20.00000000000000000, 2.449293598294706500E-015, 0.0000000000000000000 ) ) ;
#75 = ORIENTED_EDGE ( 'NONE', *, *, #119, .T. ) ;
#76 = CARTESIAN_POINT ( 'NONE',  ( 0.0000000000000000000, 0.0000000000000000000, 0.0000000000000000000 ) ) ;
#77 = PLANE ( 'NONE',  #121 ) ;
#78 = DIRECTION ( 'NONE',  ( 0.0000000000000000000, 0.0000000000000000000, 1.000000000000000000 ) ) ;
#79 = LOCAL_TIME ( 10, 10, 29.00000000000000000, #115 ) ;
#80 =( LENGTH_UNIT ( ) NAMED_UNIT ( * ) SI_UNIT ( .MILLI., .METRE. ) );
#81 = LOCAL_TIME ( 10, 10, 29.00000000000000000, #116 ) ;
#82 = APPROVAL_STATUS ( 'not_yet_approved' ) ;
#83 = APPLICATION_PROTOCOL_DEFINITION ( 'international standard', 'config_control_design', 1994, #92 ) ;
#84 = APPROVAL ( #26, 'UNSPECIFIED' ) ;
#85 = ORIENTED_EDGE ( 'NONE', *, *, #108, .T. ) ;
#86 = EDGE_CURVE ( 'NONE', #69, #58, #123, .T. ) ;
#87 = APPROVAL_DATE_TIME ( #163, #160 ) ;
#88 = VECTOR ( 'NONE', #140, 1000.000000000000000 ) ;
#89 = PERSON_AND_ORGANIZATION ( #162, #171 ) ;
#90 = CALENDAR_DATE ( 2017, 1, 2 ) ;
#91 = PERSON_AND_ORGANIZATION_ROLE ( 'creator' ) ;
#92 = APPLICATION_CONTEXT ( 'configuration controlled 3d designs of mechanical parts and assemblies' ) ;
#93 = ADVANCED_FACE ( 'NONE', ( #98 ), #16, .T. ) ;
#94 = APPLICATION_PROTOCOL_DEFINITION ( 'international standard', 'config_control_design', 1994, #109 ) ;
#95 = APPROVAL_PERSON_ORGANIZATION ( #130, #71, #128 ) ;
#96 = AXIS2_PLACEMENT_3D ( 'NONE', #170, #78, #1 ) ;
#97 = ORIENTED_EDGE ( 'NONE', *, *, #138, .T. ) ;
#98 = FACE_OUTER_BOUND ( 'NONE', #114, .T. ) ;
#99 = ORIENTED_EDGE ( 'NONE', *, *, #86, .F. ) ;
#100 = CC_DESIGN_APPROVAL ( #84, ( #59 ) ) ;
#101 = DIRECTION ( 'NONE',  ( 0.0000000000000000000, 0.0000000000000000000, 1.000000000000000000 ) ) ;
#102 = CARTESIAN_POINT ( 'NONE',  ( 0.0000000000000000000, 0.0000000000000000000, 0.2000000000000000100 ) ) ;
#103 = CARTESIAN_POINT ( 'NONE',  ( -20.00000000000000000, 0.0000000000000000000, 0.0000000000000000000 ) ) ;
#104 = DESIGN_CONTEXT ( 'detailed design', #109, 'design' ) ;
#105 = COORDINATED_UNIVERSAL_TIME_OFFSET ( 5, 0, .BEHIND. ) ;
#106 = PERSON_AND_ORGANIZATION ( #162, #171 ) ;
#107 = PERSON_AND_ORGANIZATION_ROLE ( 'design_supplier' ) ;
#108 = EDGE_CURVE ( 'NONE', #69, #141, #65, .T. ) ;
#109 = APPLICATION_CONTEXT ( 'configuration controlled 3d designs of mechanical parts and assemblies' ) ;
#110 = CC_DESIGN_PERSON_AND_ORGANIZATION_ASSIGNMENT ( #106, #91, ( #59 ) ) ;
#111 = AXIS2_PLACEMENT_3D ( 'NONE', #126, #124, #175 ) ;
#112 = LOCAL_TIME ( 10, 10, 29.00000000000000000, #105 ) ;
#113 = ORIENTED_EDGE ( 'NONE', *, *, #138, .F. ) ;
#114 = EDGE_LOOP ( 'NONE', ( #157, #134, #97, #5 ) ) ;
#115 = COORDINATED_UNIVERSAL_TIME_OFFSET ( 5, 0, .BEHIND. ) ;
#116 = COORDINATED_UNIVERSAL_TIME_OFFSET ( 5, 0, .BEHIND. ) ;
#117 = CARTESIAN_POINT ( 'NONE',  ( 0.0000000000000000000, 0.0000000000000000000, 0.2000000000000000100 ) ) ;
#118 = DIRECTION ( 'NONE',  ( 0.0000000000000000000, 0.0000000000000000000, 1.000000000000000000 ) ) ;
#119 = EDGE_CURVE ( 'NONE', #141, #69, #42, .T. ) ;
#120 = ORIENTED_EDGE ( 'NONE', *, *, #27, .T. ) ;
#121 = AXIS2_PLACEMENT_3D ( 'NONE', #102, #101, #174 ) ;
#122 = ADVANCED_BREP_SHAPE_REPRESENTATION ( 'Web Model 83105', ( #129, #96 ), #150 ) ;
#123 = LINE ( 'NONE', #149, #63 ) ;
#124 = DIRECTION ( 'NONE',  ( 0.0000000000000000000, 0.0000000000000000000, 1.000000000000000000 ) ) ;
#125 = CC_DESIGN_DATE_AND_TIME_ASSIGNMENT ( #44, #166, ( #59 ) ) ;
#126 = CARTESIAN_POINT ( 'NONE',  ( 0.0000000000000000000, 0.0000000000000000000, 0.2000000000000000100 ) ) ;
#127 = ADVANCED_FACE ( 'NONE', ( #28 ), #53, .T. ) ;
#128 = APPROVAL_ROLE ( '' ) ;
#129 = MANIFOLD_SOLID_BREP ( 'Extrude1', #49 ) ;
#130 = PERSON_AND_ORGANIZATION ( #162, #171 ) ;
#131 = AXIS2_PLACEMENT_3D ( 'NONE', #76, #148, #161 ) ;
#132 = LOCAL_TIME ( 10, 10, 29.00000000000000000, #21 ) ;
#133 = AXIS2_PLACEMENT_3D ( 'NONE', #54, #152, #40 ) ;
#134 = ORIENTED_EDGE ( 'NONE', *, *, #86, .T. ) ;
#135 = PERSON_AND_ORGANIZATION ( #162, #171 ) ;
#136 = CALENDAR_DATE ( 2017, 1, 2 ) ;
#137 = CARTESIAN_POINT ( 'NONE',  ( 20.00000000000000000, 2.449293598294706500E-015, 0.2000000000000000100 ) ) ;
#138 = EDGE_CURVE ( 'NONE', #58, #3, #20, .T. ) ;
#139 = DIRECTION ( 'NONE',  ( -0.0000000000000000000, -0.0000000000000000000, -1.000000000000000000 ) ) ;
#140 = DIRECTION ( 'NONE',  ( -0.0000000000000000000, -0.0000000000000000000, -1.000000000000000000 ) ) ;
#141 = VERTEX_POINT ( 'NONE', #167 ) ;
#142 = DIRECTION ( 'NONE',  ( 1.000000000000000000, 0.0000000000000000000, 0.0000000000000000000 ) ) ;
#143 = AXIS2_PLACEMENT_3D ( 'NONE', #165, #39, #142 ) ;
#144 = SECURITY_CLASSIFICATION ( '', '', #24 ) ;
#145 = ORIENTED_EDGE ( 'NONE', *, *, #47, .F. ) ;
#146 = EDGE_LOOP ( 'NONE', ( #99, #68, #120, #50 ) ) ;
#147 = CALENDAR_DATE ( 2017, 1, 2 ) ;
#148 = DIRECTION ( 'NONE',  ( 0.0000000000000000000, 0.0000000000000000000, 1.000000000000000000 ) ) ;
#149 = CARTESIAN_POINT ( 'NONE',  ( 20.00000000000000000, 2.449293598294706500E-015, 0.2000000000000000100 ) ) ;
#150 =( GEOMETRIC_REPRESENTATION_CONTEXT ( 3 ) GLOBAL_UNCERTAINTY_ASSIGNED_CONTEXT ( ( #159 ) ) GLOBAL_UNIT_ASSIGNED_CONTEXT ( ( #80, #8, #64 ) ) REPRESENTATION_CONTEXT ( 'NONE', 'WORKASPACE' ) );
#151 = SHAPE_DEFINITION_REPRESENTATION ( #30, #122 ) ;
#152 = DIRECTION ( 'NONE',  ( 0.0000000000000000000, 0.0000000000000000000, 1.000000000000000000 ) ) ;
#153 = PRODUCT_DEFINITION_FORMATION_WITH_SPECIFIED_SOURCE ( 'ANY', '', #14, .NOT_KNOWN. ) ;
#154 = CALENDAR_DATE ( 2017, 1, 2 ) ;
#155 = PERSON_AND_ORGANIZATION_ROLE ( 'creator' ) ;
#156 = PERSON_AND_ORGANIZATION ( #162, #171 ) ;
#157 = ORIENTED_EDGE ( 'NONE', *, *, #108, .F. ) ;
#158 = CC_DESIGN_APPROVAL ( #71, ( #144 ) ) ;
#159 = UNCERTAINTY_MEASURE_WITH_UNIT (LENGTH_MEASURE( 1.000000000000000100E-005 ), #80, 'distance_accuracy_value', 'NONE');
#160 = APPROVAL ( #41, 'UNSPECIFIED' ) ;
#161 = DIRECTION ( 'NONE',  ( 1.000000000000000000, 0.0000000000000000000, 0.0000000000000000000 ) ) ;
#162 = PERSON ( 'UNSPECIFIED', 'UNSPECIFIED', 'UNSPECIFIED', ('UNSPECIFIED'), ('UNSPECIFIED'), ('UNSPECIFIED') ) ;
#163 = DATE_AND_TIME ( #90, #132 ) ;
#164 = CARTESIAN_POINT ( 'NONE',  ( 0.0000000000000000000, 0.0000000000000000000, 0.0000000000000000000 ) ) ;
#165 = CARTESIAN_POINT ( 'NONE',  ( 0.0000000000000000000, 0.0000000000000000000, 0.0000000000000000000 ) ) ;
#166 = DATE_TIME_ROLE ( 'creation_date' ) ;
#167 = CARTESIAN_POINT ( 'NONE',  ( -20.00000000000000000, 0.0000000000000000000, 0.2000000000000000100 ) ) ;
#168 = DATE_TIME_ROLE ( 'classification_date' ) ;
#169 = AXIS2_PLACEMENT_3D ( 'NONE', #12, #55, #38 ) ;
#170 = CARTESIAN_POINT ( 'NONE',  ( 0.0000000000000000000, 0.0000000000000000000, 0.0000000000000000000 ) ) ;
#171 = ORGANIZATION ( 'UNSPECIFIED', 'UNSPECIFIED', '' ) ;
#172 = CC_DESIGN_PERSON_AND_ORGANIZATION_ASSIGNMENT ( #48, #155, ( #153 ) ) ;
#173 = EDGE_LOOP ( 'NONE', ( #75, #85 ) ) ;
#174 = DIRECTION ( 'NONE',  ( 1.000000000000000000, 0.0000000000000000000, -0.0000000000000000000 ) ) ;
#175 = DIRECTION ( 'NONE',  ( 1.000000000000000000, 0.0000000000000000000, 0.0000000000000000000 ) ) ;
ENDSEC;
END-ISO-10303-21;
