ISO-10303-21;
HEADER;
FILE_DESCRIPTION (( 'STEP AP203' ),
    '1' );
FILE_NAME ('Web Model 45567_15989.step',
    '2020-10-21T18:29:56',
    ( '' ),
    ( '' ),
    'SwSTEP 2.0',
    'SolidWorks 2018',
    '' );
FILE_SCHEMA (( 'CONFIG_CONTROL_DESIGN' ));
ENDSEC;

DATA;
#1 = DATE_AND_TIME ( #87, #92 ) ;
#2 = CC_DESIGN_PERSON_AND_ORGANIZATION_ASSIGNMENT ( #120, #130, ( #12 ) ) ;
#3 = ORIENTED_EDGE ( 'NONE', *, *, #96, .T. ) ;
#4 = LINE ( 'NONE', #149, #144 ) ;
#5 = UNCERTAINTY_MEASURE_WITH_UNIT (LENGTH_MEASURE( 1.000000000000000082E-05 ), #13, 'distance_accuracy_value', 'NONE');
#6 = VERTEX_POINT ( 'NONE', #109 ) ;
#7 = DIRECTION ( 'NONE',  ( 0.0000000000000000000, 0.0000000000000000000, 1.000000000000000000 ) ) ;
#8 = CYLINDRICAL_SURFACE ( 'NONE', #28, 3.175000000000001155 ) ;
#9 = DIRECTION ( 'NONE',  ( 1.000000000000000000, 0.0000000000000000000, -0.0000000000000000000 ) ) ;
#10 = CARTESIAN_POINT ( 'NONE',  ( 0.0000000000000000000, 0.0000000000000000000, 0.0000000000000000000 ) ) ;
#11 = CALENDAR_DATE ( 2020, 21, 10 ) ;
#12 = PRODUCT_DEFINITION_FORMATION_WITH_SPECIFIED_SOURCE ( 'ANY', '', #72, .NOT_KNOWN. ) ;
#13 =( LENGTH_UNIT ( ) NAMED_UNIT ( * ) SI_UNIT ( .MILLI., .METRE. ) );
#14 = DIRECTION ( 'NONE',  ( 0.0000000000000000000, 0.0000000000000000000, 1.000000000000000000 ) ) ;
#15 = DIRECTION ( 'NONE',  ( 0.0000000000000000000, 0.0000000000000000000, 1.000000000000000000 ) ) ;
#16 = EDGE_LOOP ( 'NONE', ( #88, #32 ) ) ;
#17 = AXIS2_PLACEMENT_3D ( 'NONE', #10, #7, #108 ) ;
#18 = LOCAL_TIME ( 14, 29, 56.00000000000000000, #143 ) ;
#19 = PERSON ( 'UNSPECIFIED', 'UNSPECIFIED', 'UNSPECIFIED', ('UNSPECIFIED'), ('UNSPECIFIED'), ('UNSPECIFIED') ) ;
#20 = PERSON_AND_ORGANIZATION ( #19, #136 ) ;
#21 = EDGE_LOOP ( 'NONE', ( #69, #174, #166, #39 ) ) ;
#22 = AXIS2_PLACEMENT_3D ( 'NONE', #172, #125, #173 ) ;
#23 = CARTESIAN_POINT ( 'NONE',  ( 0.0000000000000000000, 0.0000000000000000000, 0.5000000000000000000 ) ) ;
#24 = CIRCLE ( 'NONE', #22, 3.175000000000001155 ) ;
#25 = CARTESIAN_POINT ( 'NONE',  ( 0.0000000000000000000, 0.0000000000000000000, 0.5000000000000000000 ) ) ;
#26 = CARTESIAN_POINT ( 'NONE',  ( 0.0000000000000000000, 0.0000000000000000000, 0.0000000000000000000 ) ) ;
#27 =( NAMED_UNIT ( * ) PLANE_ANGLE_UNIT ( ) SI_UNIT ( $, .RADIAN. ) );
#28 = AXIS2_PLACEMENT_3D ( 'NONE', #59, #171, #58 ) ;
#29 = CIRCLE ( 'NONE', #74, 3.175000000000001155 ) ;
#30 = DIRECTION ( 'NONE',  ( 1.000000000000000000, 0.0000000000000000000, 0.0000000000000000000 ) ) ;
#31 = CALENDAR_DATE ( 2020, 21, 10 ) ;
#32 = ORIENTED_EDGE ( 'NONE', *, *, #89, .T. ) ;
#33 = APPROVAL_ROLE ( '' ) ;
#34 = ADVANCED_FACE ( 'NONE', ( #111 ), #38, .T. ) ;
#35 = AXIS2_PLACEMENT_3D ( 'NONE', #25, #142, #9 ) ;
#36 = APPROVAL_DATE_TIME ( #76, #113 ) ;
#37 = PERSON_AND_ORGANIZATION_ROLE ( 'classification_officer' ) ;
#38 = CYLINDRICAL_SURFACE ( 'NONE', #53, 3.175000000000001155 ) ;
#39 = ORIENTED_EDGE ( 'NONE', *, *, #96, .F. ) ;
#40 = APPLICATION_CONTEXT ( 'configuration controlled 3d designs of mechanical parts and assemblies' ) ;
#41 = APPLICATION_CONTEXT ( 'configuration controlled 3d designs of mechanical parts and assemblies' ) ;
#42 = APPROVAL_PERSON_ORGANIZATION ( #82, #175, #103 ) ;
#43 = FACE_OUTER_BOUND ( 'NONE', #61, .T. ) ;
#44 = APPROVAL_DATE_TIME ( #60, #124 ) ;
#45 = ADVANCED_FACE ( 'NONE', ( #107 ), #121, .T. ) ;
#46 = PERSON_AND_ORGANIZATION_ROLE ( 'creator' ) ;
#47 = COORDINATED_UNIVERSAL_TIME_OFFSET ( 5, 0, .BEHIND. ) ;
#48 = ORIENTED_EDGE ( 'NONE', *, *, #164, .T. ) ;
#49 = CC_DESIGN_APPROVAL ( #124, ( #12 ) ) ;
#50 = CARTESIAN_POINT ( 'NONE',  ( 3.175000000000001155, 3.888253587292847561E-16, 0.5000000000000000000 ) ) ;
#51 = PERSON_AND_ORGANIZATION ( #19, #136 ) ;
#52 = PERSON_AND_ORGANIZATION ( #19, #136 ) ;
#53 = AXIS2_PLACEMENT_3D ( 'NONE', #23, #170, #81 ) ;
#54 = CARTESIAN_POINT ( 'NONE',  ( -3.175000000000001155, 0.0000000000000000000, 0.0000000000000000000 ) ) ;
#55 =( NAMED_UNIT ( * ) SI_UNIT ( $, .STERADIAN. ) SOLID_ANGLE_UNIT ( ) );
#56 = SECURITY_CLASSIFICATION ( '', '', #93 ) ;
#57 = AXIS2_PLACEMENT_3D ( 'NONE', #65, #14, #64 ) ;
#58 = DIRECTION ( 'NONE',  ( -1.000000000000000000, 0.0000000000000000000, 0.0000000000000000000 ) ) ;
#59 = CARTESIAN_POINT ( 'NONE',  ( 0.0000000000000000000, 0.0000000000000000000, 0.5000000000000000000 ) ) ;
#60 = DATE_AND_TIME ( #11, #18 ) ;
#61 = EDGE_LOOP ( 'NONE', ( #105, #122, #3, #48 ) ) ;
#62 = CC_DESIGN_PERSON_AND_ORGANIZATION_ASSIGNMENT ( #158, #46, ( #12 ) ) ;
#63 = FACE_OUTER_BOUND ( 'NONE', #102, .T. ) ;
#64 = DIRECTION ( 'NONE',  ( 1.000000000000000000, 0.0000000000000000000, 0.0000000000000000000 ) ) ;
#65 = CARTESIAN_POINT ( 'NONE',  ( 0.0000000000000000000, 0.0000000000000000000, 0.5000000000000000000 ) ) ;
#66 = PRODUCT_RELATED_PRODUCT_CATEGORY ( 'detail', '', ( #72 ) ) ;
#67 = DATE_TIME_ROLE ( 'creation_date' ) ;
#68 = COORDINATED_UNIVERSAL_TIME_OFFSET ( 5, 0, .BEHIND. ) ;
#69 = ORIENTED_EDGE ( 'NONE', *, *, #89, .F. ) ;
#70 = PERSON_AND_ORGANIZATION_ROLE ( 'creator' ) ;
#71 = ADVANCED_FACE ( 'NONE', ( #63 ), #168, .F. ) ;
#72 = PRODUCT ( 'Web Model 45567_15989', 'Web Model 45567_15989', '', ( #90 ) ) ;
#73 = ADVANCED_FACE ( 'NONE', ( #43 ), #8, .T. ) ;
#74 = AXIS2_PLACEMENT_3D ( 'NONE', #161, #15, #30 ) ;
#75 = DATE_TIME_ROLE ( 'classification_date' ) ;
#76 = DATE_AND_TIME ( #104, #95 ) ;
#77 = CIRCLE ( 'NONE', #57, 3.175000000000001155 ) ;
#78 = EDGE_CURVE ( 'NONE', #83, #117, #150, .T. ) ;
#79 = LOCAL_TIME ( 14, 29, 56.00000000000000000, #68 ) ;
#80 = VECTOR ( 'NONE', #141, 1000.000000000000000 ) ;
#81 = DIRECTION ( 'NONE',  ( -1.000000000000000000, 0.0000000000000000000, 0.0000000000000000000 ) ) ;
#82 = PERSON_AND_ORGANIZATION ( #19, #136 ) ;
#83 = VERTEX_POINT ( 'NONE', #132 ) ;
#84 = CC_DESIGN_APPROVAL ( #113, ( #159 ) ) ;
#85 = LOCAL_TIME ( 14, 29, 56.00000000000000000, #47 ) ;
#86 = PERSON_AND_ORGANIZATION_ROLE ( 'design_owner' ) ;
#87 = CALENDAR_DATE ( 2020, 21, 10 ) ;
#88 = ORIENTED_EDGE ( 'NONE', *, *, #101, .T. ) ;
#89 = EDGE_CURVE ( 'NONE', #83, #6, #99, .T. ) ;
#90 = MECHANICAL_CONTEXT ( 'NONE', #40, 'mechanical' ) ;
#91 = APPROVAL_ROLE ( '' ) ;
#92 = LOCAL_TIME ( 14, 29, 56.00000000000000000, #153 ) ;
#93 = SECURITY_CLASSIFICATION_LEVEL ( 'unclassified' ) ;
#94 = COORDINATED_UNIVERSAL_TIME_OFFSET ( 5, 0, .BEHIND. ) ;
#95 = LOCAL_TIME ( 14, 29, 56.00000000000000000, #94 ) ;
#96 = EDGE_CURVE ( 'NONE', #6, #133, #4, .T. ) ;
#97 = DIRECTION ( 'NONE',  ( 1.000000000000000000, 0.0000000000000000000, 0.0000000000000000000 ) ) ;
#98 = DATE_AND_TIME ( #31, #79 ) ;
#99 = CIRCLE ( 'NONE', #162, 3.175000000000001155 ) ;
#100 = APPROVAL_STATUS ( 'not_yet_approved' ) ;
#101 = EDGE_CURVE ( 'NONE', #6, #83, #77, .T. ) ;
#102 = EDGE_LOOP ( 'NONE', ( #137, #155 ) ) ;
#103 = APPROVAL_ROLE ( '' ) ;
#104 = CALENDAR_DATE ( 2020, 21, 10 ) ;
#105 = ORIENTED_EDGE ( 'NONE', *, *, #78, .F. ) ;
#106 = CC_DESIGN_PERSON_AND_ORGANIZATION_ASSIGNMENT ( #110, #70, ( #159 ) ) ;
#107 = FACE_OUTER_BOUND ( 'NONE', #16, .T. ) ;
#108 = DIRECTION ( 'NONE',  ( 1.000000000000000000, 0.0000000000000000000, -0.0000000000000000000 ) ) ;
#109 = CARTESIAN_POINT ( 'NONE',  ( -3.175000000000001155, 0.0000000000000000000, 0.5000000000000000000 ) ) ;
#110 = PERSON_AND_ORGANIZATION ( #19, #136 ) ;
#111 = FACE_OUTER_BOUND ( 'NONE', #21, .T. ) ;
#112 = DIRECTION ( 'NONE',  ( -0.0000000000000000000, -0.0000000000000000000, -1.000000000000000000 ) ) ;
#113 = APPROVAL ( #100, 'UNSPECIFIED' ) ;
#114 = CC_DESIGN_DATE_AND_TIME_ASSIGNMENT ( #118, #75, ( #56 ) ) ;
#115 = ADVANCED_BREP_SHAPE_REPRESENTATION ( 'Web Model 45567_15989', ( #123, #152 ), #147 ) ;
#116 = PERSON_AND_ORGANIZATION ( #19, #136 ) ;
#117 = VERTEX_POINT ( 'NONE', #148 ) ;
#118 = DATE_AND_TIME ( #139, #85 ) ;
#119 = PRODUCT_DEFINITION_SHAPE ( 'NONE', 'NONE',  #159 ) ;
#120 = PERSON_AND_ORGANIZATION ( #19, #136 ) ;
#121 = PLANE ( 'NONE',  #35 ) ;
#122 = ORIENTED_EDGE ( 'NONE', *, *, #101, .F. ) ;
#123 = MANIFOLD_SOLID_BREP ( 'Boss-Extrude1', #145 ) ;
#124 = APPROVAL ( #163, 'UNSPECIFIED' ) ;
#125 = DIRECTION ( 'NONE',  ( 0.0000000000000000000, 0.0000000000000000000, 1.000000000000000000 ) ) ;
#126 = DESIGN_CONTEXT ( 'detailed design', #41, 'design' ) ;
#127 = APPROVAL_PERSON_ORGANIZATION ( #52, #124, #91 ) ;
#128 = EDGE_CURVE ( 'NONE', #117, #133, #29, .T. ) ;
#129 = DIRECTION ( 'NONE',  ( 1.000000000000000000, 0.0000000000000000000, 0.0000000000000000000 ) ) ;
#130 = PERSON_AND_ORGANIZATION_ROLE ( 'design_supplier' ) ;
#131 = SHAPE_DEFINITION_REPRESENTATION ( #119, #115 ) ;
#132 = CARTESIAN_POINT ( 'NONE',  ( 3.175000000000001155, 3.888253587292847561E-16, 0.5000000000000000000 ) ) ;
#133 = VERTEX_POINT ( 'NONE', #54 ) ;
#134 = DIRECTION ( 'NONE',  ( 0.0000000000000000000, 0.0000000000000000000, 1.000000000000000000 ) ) ;
#135 = CC_DESIGN_DATE_AND_TIME_ASSIGNMENT ( #1, #67, ( #159 ) ) ;
#136 = ORGANIZATION ( 'UNSPECIFIED', 'UNSPECIFIED', '' ) ;
#137 = ORIENTED_EDGE ( 'NONE', *, *, #164, .F. ) ;
#138 = APPROVAL_STATUS ( 'not_yet_approved' ) ;
#139 = CALENDAR_DATE ( 2020, 21, 10 ) ;
#140 = CC_DESIGN_SECURITY_CLASSIFICATION ( #56, ( #12 ) ) ;
#141 = DIRECTION ( 'NONE',  ( -0.0000000000000000000, -0.0000000000000000000, -1.000000000000000000 ) ) ;
#142 = DIRECTION ( 'NONE',  ( 0.0000000000000000000, 0.0000000000000000000, 1.000000000000000000 ) ) ;
#143 = COORDINATED_UNIVERSAL_TIME_OFFSET ( 5, 0, .BEHIND. ) ;
#144 = VECTOR ( 'NONE', #112, 1000.000000000000000 ) ;
#145 = CLOSED_SHELL ( 'NONE', ( #34, #73, #45, #71 ) ) ;
#146 = DIRECTION ( 'NONE',  ( 0.0000000000000000000, 0.0000000000000000000, 1.000000000000000000 ) ) ;
#147 =( GEOMETRIC_REPRESENTATION_CONTEXT ( 3 ) GLOBAL_UNCERTAINTY_ASSIGNED_CONTEXT ( ( #5 ) ) GLOBAL_UNIT_ASSIGNED_CONTEXT ( ( #13, #27, #55 ) ) REPRESENTATION_CONTEXT ( 'NONE', 'WORKASPACE' ) );
#148 = CARTESIAN_POINT ( 'NONE',  ( 3.175000000000001155, 3.888253587292847561E-16, 0.0000000000000000000 ) ) ;
#149 = CARTESIAN_POINT ( 'NONE',  ( -3.175000000000001155, 0.0000000000000000000, 0.5000000000000000000 ) ) ;
#150 = LINE ( 'NONE', #50, #80 ) ;
#151 = APPLICATION_PROTOCOL_DEFINITION ( 'international standard', 'config_control_design', 1994, #40 ) ;
#152 = AXIS2_PLACEMENT_3D ( 'NONE', #26, #134, #129 ) ;
#153 = COORDINATED_UNIVERSAL_TIME_OFFSET ( 5, 0, .BEHIND. ) ;
#154 = APPLICATION_PROTOCOL_DEFINITION ( 'international standard', 'config_control_design', 1994, #41 ) ;
#155 = ORIENTED_EDGE ( 'NONE', *, *, #128, .F. ) ;
#156 = CC_DESIGN_PERSON_AND_ORGANIZATION_ASSIGNMENT ( #51, #37, ( #56 ) ) ;
#157 = APPROVAL_DATE_TIME ( #98, #175 ) ;
#158 = PERSON_AND_ORGANIZATION ( #19, #136 ) ;
#159 = PRODUCT_DEFINITION ( 'UNKNOWN', '', #12, #126 ) ;
#160 = CARTESIAN_POINT ( 'NONE',  ( 0.0000000000000000000, 0.0000000000000000000, 0.5000000000000000000 ) ) ;
#161 = CARTESIAN_POINT ( 'NONE',  ( 0.0000000000000000000, 0.0000000000000000000, 0.0000000000000000000 ) ) ;
#162 = AXIS2_PLACEMENT_3D ( 'NONE', #160, #146, #97 ) ;
#163 = APPROVAL_STATUS ( 'not_yet_approved' ) ;
#164 = EDGE_CURVE ( 'NONE', #133, #117, #24, .T. ) ;
#165 = APPROVAL_PERSON_ORGANIZATION ( #20, #113, #33 ) ;
#166 = ORIENTED_EDGE ( 'NONE', *, *, #128, .T. ) ;
#167 = CC_DESIGN_PERSON_AND_ORGANIZATION_ASSIGNMENT ( #116, #86, ( #72 ) ) ;
#168 = PLANE ( 'NONE',  #17 ) ;
#169 = CC_DESIGN_APPROVAL ( #175, ( #56 ) ) ;
#170 = DIRECTION ( 'NONE',  ( -0.0000000000000000000, -0.0000000000000000000, -1.000000000000000000 ) ) ;
#171 = DIRECTION ( 'NONE',  ( -0.0000000000000000000, -0.0000000000000000000, -1.000000000000000000 ) ) ;
#172 = CARTESIAN_POINT ( 'NONE',  ( 0.0000000000000000000, 0.0000000000000000000, 0.0000000000000000000 ) ) ;
#173 = DIRECTION ( 'NONE',  ( 1.000000000000000000, 0.0000000000000000000, 0.0000000000000000000 ) ) ;
#174 = ORIENTED_EDGE ( 'NONE', *, *, #78, .T. ) ;
#175 = APPROVAL ( #138, 'UNSPECIFIED' ) ;
ENDSEC;
END-ISO-10303-21;
