ISO-10303-21;
HEADER;
FILE_DESCRIPTION (( 'STEP AP203' ),
    '1' );
FILE_NAME ('34601_36950.step',
    '2017-08-24T13:14:10',
    ( '' ),
    ( '' ),
    'SwSTEP 2.0',
    'SolidWorks 2016',
    '' );
FILE_SCHEMA (( 'CONFIG_CONTROL_DESIGN' ));
ENDSEC;

DATA;
#1 = LOCAL_TIME ( 9, 14, 10.00000000000000000, #117 ) ;
#2 = CC_DESIGN_PERSON_AND_ORGANIZATION_ASSIGNMENT ( #10, #22, ( #107 ) ) ;
#3 = ORIENTED_EDGE ( 'NONE', *, *, #80, .T. ) ;
#4 = AXIS2_PLACEMENT_3D ( 'NONE', #43, #19, #6 ) ;
#5 = VERTEX_POINT ( 'NONE', #113 ) ;
#6 = DIRECTION ( 'NONE',  ( -1.000000000000000000, 0.0000000000000000000, 0.0000000000000000000 ) ) ;
#7 = CC_DESIGN_DATE_AND_TIME_ASSIGNMENT ( #82, #133, ( #124 ) ) ;
#8 = DIRECTION ( 'NONE',  ( 0.0000000000000000000, 0.0000000000000000000, 1.000000000000000000 ) ) ;
#9 = CARTESIAN_POINT ( 'NONE',  ( -25.00000000000000000, 0.0000000000000000000, 3.000000000000000000 ) ) ;
#10 = PERSON_AND_ORGANIZATION ( #126, #71 ) ;
#11 = FACE_OUTER_BOUND ( 'NONE', #49, .T. ) ;
#12 = PERSON_AND_ORGANIZATION_ROLE ( 'creator' ) ;
#13 = PERSON_AND_ORGANIZATION_ROLE ( 'classification_officer' ) ;
#14 = ORIENTED_EDGE ( 'NONE', *, *, #55, .F. ) ;
#15 =( GEOMETRIC_REPRESENTATION_CONTEXT ( 3 ) GLOBAL_UNCERTAINTY_ASSIGNED_CONTEXT ( ( #52 ) ) GLOBAL_UNIT_ASSIGNED_CONTEXT ( ( #46, #87, #152 ) ) REPRESENTATION_CONTEXT ( 'NONE', 'WORKASPACE' ) );
#16 = APPROVAL_PERSON_ORGANIZATION ( #163, #148, #159 ) ;
#17 = ORIENTED_EDGE ( 'NONE', *, *, #88, .F. ) ;
#18 = CC_DESIGN_APPROVAL ( #100, ( #124 ) ) ;
#19 = DIRECTION ( 'NONE',  ( -0.0000000000000000000, -0.0000000000000000000, -1.000000000000000000 ) ) ;
#20 = CARTESIAN_POINT ( 'NONE',  ( 0.0000000000000000000, 0.0000000000000000000, 3.000000000000000000 ) ) ;
#21 = LOCAL_TIME ( 9, 14, 10.00000000000000000, #57 ) ;
#22 = PERSON_AND_ORGANIZATION_ROLE ( 'design_supplier' ) ;
#23 = PERSON_AND_ORGANIZATION ( #126, #71 ) ;
#24 = LINE ( 'NONE', #29, #119 ) ;
#25 = MANIFOLD_SOLID_BREP ( 'Boss-Extrude1', #83 ) ;
#26 = DIRECTION ( 'NONE',  ( -0.0000000000000000000, -0.0000000000000000000, -1.000000000000000000 ) ) ;
#27 = CALENDAR_DATE ( 2017, 24, 8 ) ;
#28 = CARTESIAN_POINT ( 'NONE',  ( 25.00000000000000000, 3.061616997868383000E-015, 0.0000000000000000000 ) ) ;
#29 = CARTESIAN_POINT ( 'NONE',  ( 25.00000000000000000, 3.061616997868383000E-015, 3.000000000000000000 ) ) ;
#30 = DATE_AND_TIME ( #134, #58 ) ;
#31 = CIRCLE ( 'NONE', #116, 25.00000000000000000 ) ;
#32 = PLANE ( 'NONE',  #164 ) ;
#33 = DATE_AND_TIME ( #101, #75 ) ;
#34 = DIRECTION ( 'NONE',  ( -0.0000000000000000000, -0.0000000000000000000, -1.000000000000000000 ) ) ;
#35 = APPROVAL_ROLE ( '' ) ;
#36 = APPROVAL_STATUS ( 'not_yet_approved' ) ;
#37 = PERSON_AND_ORGANIZATION ( #126, #71 ) ;
#38 = SECURITY_CLASSIFICATION_LEVEL ( 'unclassified' ) ;
#39 = DIRECTION ( 'NONE',  ( 1.000000000000000000, 0.0000000000000000000, 0.0000000000000000000 ) ) ;
#40 = CC_DESIGN_PERSON_AND_ORGANIZATION_ASSIGNMENT ( #37, #48, ( #95 ) ) ;
#41 = DIRECTION ( 'NONE',  ( 1.000000000000000000, 0.0000000000000000000, 0.0000000000000000000 ) ) ;
#42 = CALENDAR_DATE ( 2017, 24, 8 ) ;
#43 = CARTESIAN_POINT ( 'NONE',  ( 0.0000000000000000000, 0.0000000000000000000, 3.000000000000000000 ) ) ;
#44 = ORIENTED_EDGE ( 'NONE', *, *, #88, .T. ) ;
#45 = CARTESIAN_POINT ( 'NONE',  ( 0.0000000000000000000, 0.0000000000000000000, 0.0000000000000000000 ) ) ;
#46 =( LENGTH_UNIT ( ) NAMED_UNIT ( * ) SI_UNIT ( .MILLI., .METRE. ) );
#47 = EDGE_LOOP ( 'NONE', ( #103, #79, #166, #56 ) ) ;
#48 = PERSON_AND_ORGANIZATION_ROLE ( 'design_owner' ) ;
#49 = EDGE_LOOP ( 'NONE', ( #143, #132, #44, #129 ) ) ;
#50 = CIRCLE ( 'NONE', #172, 25.00000000000000000 ) ;
#51 = APPROVAL_ROLE ( '' ) ;
#52 = UNCERTAINTY_MEASURE_WITH_UNIT (LENGTH_MEASURE( 1.000000000000000100E-005 ), #46, 'distance_accuracy_value', 'NONE');
#53 = AXIS2_PLACEMENT_3D ( 'NONE', #140, #146, #167 ) ;
#54 = ADVANCED_FACE ( 'NONE', ( #11 ), #157, .T. ) ;
#55 = EDGE_CURVE ( 'NONE', #171, #60, #153, .T. ) ;
#56 = ORIENTED_EDGE ( 'NONE', *, *, #55, .T. ) ;
#57 = COORDINATED_UNIVERSAL_TIME_OFFSET ( 5, 0, .BEHIND. ) ;
#58 = LOCAL_TIME ( 9, 14, 10.00000000000000000, #174 ) ;
#59 = DIRECTION ( 'NONE',  ( 0.0000000000000000000, 0.0000000000000000000, 1.000000000000000000 ) ) ;
#60 = VERTEX_POINT ( 'NONE', #28 ) ;
#61 = CARTESIAN_POINT ( 'NONE',  ( -25.00000000000000000, 0.0000000000000000000, 3.000000000000000000 ) ) ;
#62 = CARTESIAN_POINT ( 'NONE',  ( 0.0000000000000000000, 0.0000000000000000000, 3.000000000000000000 ) ) ;
#63 = EDGE_CURVE ( 'NONE', #5, #175, #31, .T. ) ;
#64 = COORDINATED_UNIVERSAL_TIME_OFFSET ( 5, 0, .BEHIND. ) ;
#65 = AXIS2_PLACEMENT_3D ( 'NONE', #45, #150, #39 ) ;
#66 = APPROVAL_DATE_TIME ( #106, #148 ) ;
#67 = PERSON_AND_ORGANIZATION ( #126, #71 ) ;
#68 = CARTESIAN_POINT ( 'NONE',  ( 0.0000000000000000000, 0.0000000000000000000, 0.0000000000000000000 ) ) ;
#69 = DIRECTION ( 'NONE',  ( 0.0000000000000000000, 0.0000000000000000000, 1.000000000000000000 ) ) ;
#70 = EDGE_CURVE ( 'NONE', #5, #60, #24, .T. ) ;
#71 = ORGANIZATION ( 'UNSPECIFIED', 'UNSPECIFIED', '' ) ;
#72 = DIRECTION ( 'NONE',  ( 0.0000000000000000000, 0.0000000000000000000, 1.000000000000000000 ) ) ;
#73 = ADVANCED_BREP_SHAPE_REPRESENTATION ( '34601_36950', ( #25, #112 ), #15 ) ;
#74 = CARTESIAN_POINT ( 'NONE',  ( -25.00000000000000000, 0.0000000000000000000, 0.0000000000000000000 ) ) ;
#75 = LOCAL_TIME ( 9, 14, 10.00000000000000000, #64 ) ;
#76 = CC_DESIGN_PERSON_AND_ORGANIZATION_ASSIGNMENT ( #23, #12, ( #155 ) ) ;
#77 = ADVANCED_FACE ( 'NONE', ( #136 ), #85, .T. ) ;
#78 = LOCAL_TIME ( 9, 14, 10.00000000000000000, #161 ) ;
#79 = ORIENTED_EDGE ( 'NONE', *, *, #80, .F. ) ;
#80 = EDGE_CURVE ( 'NONE', #175, #5, #50, .T. ) ;
#81 = ORIENTED_EDGE ( 'NONE', *, *, #63, .T. ) ;
#82 = DATE_AND_TIME ( #27, #21 ) ;
#83 = CLOSED_SHELL ( 'NONE', ( #54, #77, #165, #120 ) ) ;
#84 = CC_DESIGN_APPROVAL ( #148, ( #107 ) ) ;
#85 = CYLINDRICAL_SURFACE ( 'NONE', #4, 25.00000000000000000 ) ;
#86 = DIRECTION ( 'NONE',  ( 1.000000000000000000, 0.0000000000000000000, 0.0000000000000000000 ) ) ;
#87 =( NAMED_UNIT ( * ) PLANE_ANGLE_UNIT ( ) SI_UNIT ( $, .RADIAN. ) );
#88 = EDGE_CURVE ( 'NONE', #60, #171, #114, .T. ) ;
#89 = LINE ( 'NONE', #9, #145 ) ;
#90 = CC_DESIGN_PERSON_AND_ORGANIZATION_ASSIGNMENT ( #169, #160, ( #107 ) ) ;
#91 = PERSON_AND_ORGANIZATION ( #126, #71 ) ;
#92 = PRODUCT_RELATED_PRODUCT_CATEGORY ( 'detail', '', ( #95 ) ) ;
#93 = APPROVAL_DATE_TIME ( #30, #100 ) ;
#94 = FACE_OUTER_BOUND ( 'NONE', #110, .T. ) ;
#95 = PRODUCT ( '34601_36950', '34601_36950', '', ( #142 ) ) ;
#96 = DESIGN_CONTEXT ( 'detailed design', #162, 'design' ) ;
#97 = DIRECTION ( 'NONE',  ( 1.000000000000000000, 0.0000000000000000000, 0.0000000000000000000 ) ) ;
#98 = CC_DESIGN_APPROVAL ( #130, ( #155 ) ) ;
#99 = APPROVAL_PERSON_ORGANIZATION ( #67, #130, #35 ) ;
#100 = APPROVAL ( #158, 'UNSPECIFIED' ) ;
#101 = CALENDAR_DATE ( 2017, 24, 8 ) ;
#102 = APPLICATION_PROTOCOL_DEFINITION ( 'international standard', 'config_control_design', 1994, #162 ) ;
#103 = ORIENTED_EDGE ( 'NONE', *, *, #70, .F. ) ;
#104 = APPROVAL_STATUS ( 'not_yet_approved' ) ;
#105 = CC_DESIGN_SECURITY_CLASSIFICATION ( #124, ( #107 ) ) ;
#106 = DATE_AND_TIME ( #139, #1 ) ;
#107 = PRODUCT_DEFINITION_FORMATION_WITH_SPECIFIED_SOURCE ( 'ANY', '', #95, .NOT_KNOWN. ) ;
#108 = APPROVAL_PERSON_ORGANIZATION ( #156, #100, #51 ) ;
#109 = SHAPE_DEFINITION_REPRESENTATION ( #137, #73 ) ;
#110 = EDGE_LOOP ( 'NONE', ( #14, #17 ) ) ;
#111 = DIRECTION ( 'NONE',  ( -1.000000000000000000, 0.0000000000000000000, 0.0000000000000000000 ) ) ;
#112 = AXIS2_PLACEMENT_3D ( 'NONE', #154, #8, #86 ) ;
#113 = CARTESIAN_POINT ( 'NONE',  ( 25.00000000000000000, 3.061616997868383000E-015, 3.000000000000000000 ) ) ;
#114 = CIRCLE ( 'NONE', #65, 25.00000000000000000 ) ;
#115 = APPLICATION_PROTOCOL_DEFINITION ( 'international standard', 'config_control_design', 1994, #173 ) ;
#116 = AXIS2_PLACEMENT_3D ( 'NONE', #125, #122, #41 ) ;
#117 = COORDINATED_UNIVERSAL_TIME_OFFSET ( 5, 0, .BEHIND. ) ;
#118 = APPROVAL_DATE_TIME ( #33, #130 ) ;
#119 = VECTOR ( 'NONE', #26, 1000.000000000000000 ) ;
#120 = ADVANCED_FACE ( 'NONE', ( #94 ), #127, .F. ) ;
#121 = EDGE_LOOP ( 'NONE', ( #3, #81 ) ) ;
#122 = DIRECTION ( 'NONE',  ( 0.0000000000000000000, 0.0000000000000000000, 1.000000000000000000 ) ) ;
#123 = EDGE_CURVE ( 'NONE', #175, #171, #89, .T. ) ;
#124 = SECURITY_CLASSIFICATION ( '', '', #38 ) ;
#125 = CARTESIAN_POINT ( 'NONE',  ( 0.0000000000000000000, 0.0000000000000000000, 3.000000000000000000 ) ) ;
#126 = PERSON ( 'UNSPECIFIED', 'UNSPECIFIED', 'UNSPECIFIED', ('UNSPECIFIED'), ('UNSPECIFIED'), ('UNSPECIFIED') ) ;
#127 = PLANE ( 'NONE',  #53 ) ;
#128 = DATE_AND_TIME ( #42, #78 ) ;
#129 = ORIENTED_EDGE ( 'NONE', *, *, #123, .F. ) ;
#130 = APPROVAL ( #36, 'UNSPECIFIED' ) ;
#131 = DATE_TIME_ROLE ( 'creation_date' ) ;
#132 = ORIENTED_EDGE ( 'NONE', *, *, #70, .T. ) ;
#133 = DATE_TIME_ROLE ( 'classification_date' ) ;
#134 = CALENDAR_DATE ( 2017, 24, 8 ) ;
#135 = CC_DESIGN_PERSON_AND_ORGANIZATION_ASSIGNMENT ( #91, #13, ( #124 ) ) ;
#136 = FACE_OUTER_BOUND ( 'NONE', #47, .T. ) ;
#137 = PRODUCT_DEFINITION_SHAPE ( 'NONE', 'NONE',  #155 ) ;
#138 = CARTESIAN_POINT ( 'NONE',  ( 0.0000000000000000000, 0.0000000000000000000, 3.000000000000000000 ) ) ;
#139 = CALENDAR_DATE ( 2017, 24, 8 ) ;
#140 = CARTESIAN_POINT ( 'NONE',  ( 0.0000000000000000000, 0.0000000000000000000, 0.0000000000000000000 ) ) ;
#141 = AXIS2_PLACEMENT_3D ( 'NONE', #138, #147, #111 ) ;
#142 = MECHANICAL_CONTEXT ( 'NONE', #173, 'mechanical' ) ;
#143 = ORIENTED_EDGE ( 'NONE', *, *, #63, .F. ) ;
#144 = AXIS2_PLACEMENT_3D ( 'NONE', #68, #72, #97 ) ;
#145 = VECTOR ( 'NONE', #34, 1000.000000000000000 ) ;
#146 = DIRECTION ( 'NONE',  ( 0.0000000000000000000, 0.0000000000000000000, 1.000000000000000000 ) ) ;
#147 = DIRECTION ( 'NONE',  ( -0.0000000000000000000, -0.0000000000000000000, -1.000000000000000000 ) ) ;
#148 = APPROVAL ( #104, 'UNSPECIFIED' ) ;
#149 = FACE_OUTER_BOUND ( 'NONE', #121, .T. ) ;
#150 = DIRECTION ( 'NONE',  ( 0.0000000000000000000, 0.0000000000000000000, 1.000000000000000000 ) ) ;
#151 = DIRECTION ( 'NONE',  ( 1.000000000000000000, 0.0000000000000000000, -0.0000000000000000000 ) ) ;
#152 =( NAMED_UNIT ( * ) SI_UNIT ( $, .STERADIAN. ) SOLID_ANGLE_UNIT ( ) );
#153 = CIRCLE ( 'NONE', #144, 25.00000000000000000 ) ;
#154 = CARTESIAN_POINT ( 'NONE',  ( 0.0000000000000000000, 0.0000000000000000000, 0.0000000000000000000 ) ) ;
#155 = PRODUCT_DEFINITION ( 'UNKNOWN', '', #107, #96 ) ;
#156 = PERSON_AND_ORGANIZATION ( #126, #71 ) ;
#157 = CYLINDRICAL_SURFACE ( 'NONE', #141, 25.00000000000000000 ) ;
#158 = APPROVAL_STATUS ( 'not_yet_approved' ) ;
#159 = APPROVAL_ROLE ( '' ) ;
#160 = PERSON_AND_ORGANIZATION_ROLE ( 'creator' ) ;
#161 = COORDINATED_UNIVERSAL_TIME_OFFSET ( 5, 0, .BEHIND. ) ;
#162 = APPLICATION_CONTEXT ( 'configuration controlled 3d designs of mechanical parts and assemblies' ) ;
#163 = PERSON_AND_ORGANIZATION ( #126, #71 ) ;
#164 = AXIS2_PLACEMENT_3D ( 'NONE', #62, #59, #151 ) ;
#165 = ADVANCED_FACE ( 'NONE', ( #149 ), #32, .T. ) ;
#166 = ORIENTED_EDGE ( 'NONE', *, *, #123, .T. ) ;
#167 = DIRECTION ( 'NONE',  ( 1.000000000000000000, 0.0000000000000000000, -0.0000000000000000000 ) ) ;
#168 = CC_DESIGN_DATE_AND_TIME_ASSIGNMENT ( #128, #131, ( #155 ) ) ;
#169 = PERSON_AND_ORGANIZATION ( #126, #71 ) ;
#170 = DIRECTION ( 'NONE',  ( 1.000000000000000000, 0.0000000000000000000, 0.0000000000000000000 ) ) ;
#171 = VERTEX_POINT ( 'NONE', #74 ) ;
#172 = AXIS2_PLACEMENT_3D ( 'NONE', #20, #69, #170 ) ;
#173 = APPLICATION_CONTEXT ( 'configuration controlled 3d designs of mechanical parts and assemblies' ) ;
#174 = COORDINATED_UNIVERSAL_TIME_OFFSET ( 5, 0, .BEHIND. ) ;
#175 = VERTEX_POINT ( 'NONE', #61 ) ;
ENDSEC;
END-ISO-10303-21;
