ISO-10303-21;
HEADER;
FILE_DESCRIPTION (( 'STEP AP203' ),
    '1' );
FILE_NAME ('Web Model 14960_18325.step',
    '2021-06-28T14:47:37',
    ( '' ),
    ( '' ),
    'SwSTEP 2.0',
    'SolidWorks 2018',
    '' );
FILE_SCHEMA (( 'CONFIG_CONTROL_DESIGN' ));
ENDSEC;

DATA;
#1 = SHAPE_DEFINITION_REPRESENTATION ( #3, #151 ) ;
#2 = DIRECTION ( 'NONE',  ( 0.000000000000000000, 0.000000000000000000, -1.000000000000000000 ) ) ;
#3 = PRODUCT_DEFINITION_SHAPE ( 'NONE', 'NONE',  #79 ) ;
#4 = PERSON_AND_ORGANIZATION ( #100, #129 ) ;
#5 = CARTESIAN_POINT ( 'NONE',  ( 1.000000000000000000, 0.000000000000000000, 7.500000000000000000 ) ) ;
#6 = LINE ( 'NONE', #21, #153 ) ;
#7 = DIRECTION ( 'NONE',  ( -1.000000000000000000, -0.000000000000000000, -0.000000000000000000 ) ) ;
#8 = SECURITY_CLASSIFICATION ( '', '', #70 ) ;
#9 = DIRECTION ( 'NONE',  ( -1.000000000000000000, -0.000000000000000000, -0.000000000000000000 ) ) ;
#10 = APPROVAL_ROLE ( '' ) ;
#11 = FACE_OUTER_BOUND ( 'NONE', #83, .T. ) ;
#12 = CARTESIAN_POINT ( 'NONE',  ( -1.000000000000000000, 0.000000000000000000, 0.000000000000000000 ) ) ;
#13 = APPROVAL_ROLE ( '' ) ;
#14 = APPLICATION_CONTEXT ( 'configuration controlled 3d designs of mechanical parts and assemblies' ) ;
#15 = AXIS2_PLACEMENT_3D ( 'NONE', #12, #38, #175 ) ;
#16 = APPROVAL_DATE_TIME ( #158, #155 ) ;
#17 = EDGE_CURVE ( 'NONE', #168, #80, #149, .T. ) ;
#18 = CALENDAR_DATE ( 2021, 28, 6 ) ;
#19 = LOCAL_TIME ( 10, 47, 37.00000000000000000, #126 ) ;
#20 = ORIENTED_EDGE ( 'NONE', *, *, #105, .F. ) ;
#21 = CARTESIAN_POINT ( 'NONE',  ( 1.000000000000000000, 9.184850993605147944E-16, -7.500000000000000000 ) ) ;
#22 = DATE_AND_TIME ( #18, #165 ) ;
#23 = EDGE_CURVE ( 'NONE', #80, #66, #60, .T. ) ;
#24 =( LENGTH_UNIT ( ) NAMED_UNIT ( * ) SI_UNIT ( .MILLI., .METRE. ) );
#25 = DIRECTION ( 'NONE',  ( 1.000000000000000000, 0.000000000000000000, 0.000000000000000000 ) ) ;
#26 = VERTEX_POINT ( 'NONE', #99 ) ;
#27 = DIRECTION ( 'NONE',  ( 0.000000000000000000, 0.000000000000000000, 1.000000000000000000 ) ) ;
#28 = CC_DESIGN_APPROVAL ( #67, ( #8 ) ) ;
#29 = ORIENTED_EDGE ( 'NONE', *, *, #160, .F. ) ;
#30 = COORDINATED_UNIVERSAL_TIME_OFFSET ( 5, 0, .BEHIND. ) ;
#31 = AXIS2_PLACEMENT_3D ( 'NONE', #34, #88, #35 ) ;
#32 = DESIGN_CONTEXT ( 'detailed design', #123, 'design' ) ;
#33 = PERSON_AND_ORGANIZATION ( #100, #129 ) ;
#34 = CARTESIAN_POINT ( 'NONE',  ( 1.000000000000000000, 0.000000000000000000, 0.000000000000000000 ) ) ;
#35 = DIRECTION ( 'NONE',  ( 0.000000000000000000, 0.000000000000000000, -1.000000000000000000 ) ) ;
#36 = APPLICATION_PROTOCOL_DEFINITION ( 'international standard', 'config_control_design', 1994, #123 ) ;
#37 = MANIFOLD_SOLID_BREP ( 'Boss-Extrude1', #134 ) ;
#38 = DIRECTION ( 'NONE',  ( 1.000000000000000000, 0.000000000000000000, 0.000000000000000000 ) ) ;
#39 = COORDINATED_UNIVERSAL_TIME_OFFSET ( 5, 0, .BEHIND. ) ;
#40 =( NAMED_UNIT ( * ) SI_UNIT ( $, .STERADIAN. ) SOLID_ANGLE_UNIT ( ) );
#41 = DATE_TIME_ROLE ( 'creation_date' ) ;
#42 = CYLINDRICAL_SURFACE ( 'NONE', #95, 7.500000000000000000 ) ;
#43 = APPROVAL_DATE_TIME ( #22, #62 ) ;
#44 = FACE_OUTER_BOUND ( 'NONE', #71, .T. ) ;
#45 = AXIS2_PLACEMENT_3D ( 'NONE', #75, #69, #122 ) ;
#46 = COORDINATED_UNIVERSAL_TIME_OFFSET ( 5, 0, .BEHIND. ) ;
#47 = CARTESIAN_POINT ( 'NONE',  ( -1.000000000000000000, 0.000000000000000000, 7.500000000000000000 ) ) ;
#48 = CIRCLE ( 'NONE', #144, 7.500000000000000000 ) ;
#49 = CC_DESIGN_APPROVAL ( #155, ( #127 ) ) ;
#50 = DIRECTION ( 'NONE',  ( 1.000000000000000000, 0.000000000000000000, 0.000000000000000000 ) ) ;
#51 = PERSON_AND_ORGANIZATION_ROLE ( 'creator' ) ;
#52 = PERSON_AND_ORGANIZATION ( #100, #129 ) ;
#53 = CARTESIAN_POINT ( 'NONE',  ( 1.000000000000000000, 9.184850993605147944E-16, -7.500000000000000000 ) ) ;
#54 = AXIS2_PLACEMENT_3D ( 'NONE', #104, #137, #25 ) ;
#55 = APPROVAL_STATUS ( 'not_yet_approved' ) ;
#56 = APPROVAL_STATUS ( 'not_yet_approved' ) ;
#57 = PERSON_AND_ORGANIZATION ( #100, #129 ) ;
#58 = CALENDAR_DATE ( 2021, 28, 6 ) ;
#59 = PERSON_AND_ORGANIZATION ( #100, #129 ) ;
#60 = LINE ( 'NONE', #5, #116 ) ;
#61 = CC_DESIGN_SECURITY_CLASSIFICATION ( #8, ( #127 ) ) ;
#62 = APPROVAL ( #55, 'UNSPECIFIED' ) ;
#63 = PERSON_AND_ORGANIZATION ( #100, #129 ) ;
#64 = EDGE_LOOP ( 'NONE', ( #140, #125, #128, #96 ) ) ;
#65 = ADVANCED_FACE ( 'NONE', ( #142 ), #118, .T. ) ;
#66 = VERTEX_POINT ( 'NONE', #47 ) ;
#67 = APPROVAL ( #68, 'UNSPECIFIED' ) ;
#68 = APPROVAL_STATUS ( 'not_yet_approved' ) ;
#69 = DIRECTION ( 'NONE',  ( 1.000000000000000000, 0.000000000000000000, 0.000000000000000000 ) ) ;
#70 = SECURITY_CLASSIFICATION_LEVEL ( 'unclassified' ) ;
#71 = EDGE_LOOP ( 'NONE', ( #94, #29 ) ) ;
#72 = EDGE_CURVE ( 'NONE', #66, #26, #48, .T. ) ;
#73 = ORIENTED_EDGE ( 'NONE', *, *, #17, .T. ) ;
#74 = PERSON_AND_ORGANIZATION ( #100, #129 ) ;
#75 = CARTESIAN_POINT ( 'NONE',  ( 1.000000000000000000, 0.000000000000000000, 0.000000000000000000 ) ) ;
#76 = CARTESIAN_POINT ( 'NONE',  ( 1.000000000000000000, 0.000000000000000000, 0.000000000000000000 ) ) ;
#77 = APPLICATION_PROTOCOL_DEFINITION ( 'international standard', 'config_control_design', 1994, #14 ) ;
#78 = FACE_OUTER_BOUND ( 'NONE', #64, .T. ) ;
#79 = PRODUCT_DEFINITION ( 'UNKNOWN', '', #127, #32 ) ;
#80 = VERTEX_POINT ( 'NONE', #145 ) ;
#81 = PERSON_AND_ORGANIZATION_ROLE ( 'design_owner' ) ;
#82 = CALENDAR_DATE ( 2021, 28, 6 ) ;
#83 = EDGE_LOOP ( 'NONE', ( #167, #20, #87, #157 ) ) ;
#84 = PERSON_AND_ORGANIZATION ( #100, #129 ) ;
#85 = CC_DESIGN_PERSON_AND_ORGANIZATION_ASSIGNMENT ( #63, #51, ( #127 ) ) ;
#86 = CC_DESIGN_PERSON_AND_ORGANIZATION_ASSIGNMENT ( #59, #81, ( #89 ) ) ;
#87 = ORIENTED_EDGE ( 'NONE', *, *, #23, .T. ) ;
#88 = DIRECTION ( 'NONE',  ( 1.000000000000000000, 0.000000000000000000, 0.000000000000000000 ) ) ;
#89 = PRODUCT ( 'Web Model 14960_18325', 'Web Model 14960_18325', '', ( #121 ) ) ;
#90 = DATE_AND_TIME ( #82, #19 ) ;
#91 = DIRECTION ( 'NONE',  ( -1.000000000000000000, -0.000000000000000000, -0.000000000000000000 ) ) ;
#92 = DATE_AND_TIME ( #108, #174 ) ;
#93 = EDGE_CURVE ( 'NONE', #168, #26, #6, .T. ) ;
#94 = ORIENTED_EDGE ( 'NONE', *, *, #72, .F. ) ;
#95 = AXIS2_PLACEMENT_3D ( 'NONE', #139, #91, #27 ) ;
#96 = ORIENTED_EDGE ( 'NONE', *, *, #23, .F. ) ;
#97 = PLANE ( 'NONE',  #107 ) ;
#98 = DIRECTION ( 'NONE',  ( 1.000000000000000000, 0.000000000000000000, 0.000000000000000000 ) ) ;
#99 = CARTESIAN_POINT ( 'NONE',  ( -1.000000000000000000, 9.184850993605147944E-16, -7.500000000000000000 ) ) ;
#100 = PERSON ( 'UNSPECIFIED', 'UNSPECIFIED', 'UNSPECIFIED', ('UNSPECIFIED'), ('UNSPECIFIED'), ('UNSPECIFIED') ) ;
#101 = DIRECTION ( 'NONE',  ( 0.000000000000000000, 0.000000000000000000, 1.000000000000000000 ) ) ;
#102 = AXIS2_PLACEMENT_3D ( 'NONE', #76, #143, #101 ) ;
#103 = CIRCLE ( 'NONE', #15, 7.500000000000000000 ) ;
#104 = CARTESIAN_POINT ( 'NONE',  ( 0.000000000000000000, 0.000000000000000000, 0.000000000000000000 ) ) ;
#105 = EDGE_CURVE ( 'NONE', #80, #168, #109, .T. ) ;
#106 = UNCERTAINTY_MEASURE_WITH_UNIT (LENGTH_MEASURE( 1.000000000000000082E-05 ), #24, 'distance_accuracy_value', 'NONE');
#107 = AXIS2_PLACEMENT_3D ( 'NONE', #132, #163, #136 ) ;
#108 = CALENDAR_DATE ( 2021, 28, 6 ) ;
#109 = CIRCLE ( 'NONE', #45, 7.500000000000000000 ) ;
#110 = CC_DESIGN_APPROVAL ( #62, ( #79 ) ) ;
#111 = APPROVAL_DATE_TIME ( #90, #67 ) ;
#112 = DIRECTION ( 'NONE',  ( 0.000000000000000000, 0.000000000000000000, -1.000000000000000000 ) ) ;
#113 = CC_DESIGN_PERSON_AND_ORGANIZATION_ASSIGNMENT ( #33, #138, ( #79 ) ) ;
#114 = ADVANCED_FACE ( 'NONE', ( #44 ), #97, .F. ) ;
#115 = LOCAL_TIME ( 10, 47, 37.00000000000000000, #169 ) ;
#116 = VECTOR ( 'NONE', #7, 1000.000000000000000 ) ;
#117 = CARTESIAN_POINT ( 'NONE',  ( -1.000000000000000000, 0.000000000000000000, 0.000000000000000000 ) ) ;
#118 = PLANE ( 'NONE',  #166 ) ;
#119 =( GEOMETRIC_REPRESENTATION_CONTEXT ( 3 ) GLOBAL_UNCERTAINTY_ASSIGNED_CONTEXT ( ( #106 ) ) GLOBAL_UNIT_ASSIGNED_CONTEXT ( ( #24, #162, #40 ) ) REPRESENTATION_CONTEXT ( 'NONE', 'WORKASPACE' ) );
#120 = APPROVAL_PERSON_ORGANIZATION ( #74, #155, #13 ) ;
#121 = MECHANICAL_CONTEXT ( 'NONE', #14, 'mechanical' ) ;
#122 = DIRECTION ( 'NONE',  ( 0.000000000000000000, 0.000000000000000000, -1.000000000000000000 ) ) ;
#123 = APPLICATION_CONTEXT ( 'configuration controlled 3d designs of mechanical parts and assemblies' ) ;
#124 = CALENDAR_DATE ( 2021, 28, 6 ) ;
#125 = ORIENTED_EDGE ( 'NONE', *, *, #93, .T. ) ;
#126 = COORDINATED_UNIVERSAL_TIME_OFFSET ( 5, 0, .BEHIND. ) ;
#127 = PRODUCT_DEFINITION_FORMATION_WITH_SPECIFIED_SOURCE ( 'ANY', '', #89, .NOT_KNOWN. ) ;
#128 = ORIENTED_EDGE ( 'NONE', *, *, #160, .T. ) ;
#129 = ORGANIZATION ( 'UNSPECIFIED', 'UNSPECIFIED', '' ) ;
#130 = PRODUCT_RELATED_PRODUCT_CATEGORY ( 'detail', '', ( #89 ) ) ;
#131 = LOCAL_TIME ( 10, 47, 37.00000000000000000, #39 ) ;
#132 = CARTESIAN_POINT ( 'NONE',  ( -1.000000000000000000, 0.000000000000000000, 0.000000000000000000 ) ) ;
#133 = CARTESIAN_POINT ( 'NONE',  ( 1.000000000000000000, 0.000000000000000000, 0.000000000000000000 ) ) ;
#134 = CLOSED_SHELL ( 'NONE', ( #146, #171, #65, #114 ) ) ;
#135 = APPROVAL_ROLE ( '' ) ;
#136 = DIRECTION ( 'NONE',  ( 0.000000000000000000, 0.000000000000000000, -1.000000000000000000 ) ) ;
#137 = DIRECTION ( 'NONE',  ( 0.000000000000000000, 0.000000000000000000, 1.000000000000000000 ) ) ;
#138 = PERSON_AND_ORGANIZATION_ROLE ( 'creator' ) ;
#139 = CARTESIAN_POINT ( 'NONE',  ( 1.000000000000000000, 0.000000000000000000, 0.000000000000000000 ) ) ;
#140 = ORIENTED_EDGE ( 'NONE', *, *, #17, .F. ) ;
#141 = CC_DESIGN_PERSON_AND_ORGANIZATION_ASSIGNMENT ( #4, #150, ( #127 ) ) ;
#142 = FACE_OUTER_BOUND ( 'NONE', #170, .T. ) ;
#143 = DIRECTION ( 'NONE',  ( -1.000000000000000000, -0.000000000000000000, -0.000000000000000000 ) ) ;
#144 = AXIS2_PLACEMENT_3D ( 'NONE', #117, #50, #112 ) ;
#145 = CARTESIAN_POINT ( 'NONE',  ( 1.000000000000000000, 0.000000000000000000, 7.500000000000000000 ) ) ;
#146 = ADVANCED_FACE ( 'NONE', ( #78 ), #152, .T. ) ;
#147 = DATE_TIME_ROLE ( 'classification_date' ) ;
#148 = PERSON_AND_ORGANIZATION_ROLE ( 'classification_officer' ) ;
#149 = CIRCLE ( 'NONE', #31, 7.500000000000000000 ) ;
#150 = PERSON_AND_ORGANIZATION_ROLE ( 'design_supplier' ) ;
#151 = ADVANCED_BREP_SHAPE_REPRESENTATION ( 'Web Model 14960_18325', ( #37, #54 ), #119 ) ;
#152 = CYLINDRICAL_SURFACE ( 'NONE', #102, 7.500000000000000000 ) ;
#153 = VECTOR ( 'NONE', #9, 1000.000000000000000 ) ;
#154 = DATE_AND_TIME ( #124, #131 ) ;
#155 = APPROVAL ( #56, 'UNSPECIFIED' ) ;
#156 = APPROVAL_PERSON_ORGANIZATION ( #52, #62, #135 ) ;
#157 = ORIENTED_EDGE ( 'NONE', *, *, #72, .T. ) ;
#158 = DATE_AND_TIME ( #58, #115 ) ;
#159 = ORIENTED_EDGE ( 'NONE', *, *, #105, .T. ) ;
#160 = EDGE_CURVE ( 'NONE', #26, #66, #103, .T. ) ;
#161 = APPROVAL_PERSON_ORGANIZATION ( #57, #67, #10 ) ;
#162 =( NAMED_UNIT ( * ) PLANE_ANGLE_UNIT ( ) SI_UNIT ( $, .RADIAN. ) );
#163 = DIRECTION ( 'NONE',  ( 1.000000000000000000, 0.000000000000000000, 0.000000000000000000 ) ) ;
#164 = CC_DESIGN_PERSON_AND_ORGANIZATION_ASSIGNMENT ( #84, #148, ( #8 ) ) ;
#165 = LOCAL_TIME ( 10, 47, 37.00000000000000000, #30 ) ;
#166 = AXIS2_PLACEMENT_3D ( 'NONE', #133, #98, #2 ) ;
#167 = ORIENTED_EDGE ( 'NONE', *, *, #93, .F. ) ;
#168 = VERTEX_POINT ( 'NONE', #53 ) ;
#169 = COORDINATED_UNIVERSAL_TIME_OFFSET ( 5, 0, .BEHIND. ) ;
#170 = EDGE_LOOP ( 'NONE', ( #159, #73 ) ) ;
#171 = ADVANCED_FACE ( 'NONE', ( #11 ), #42, .T. ) ;
#172 = CC_DESIGN_DATE_AND_TIME_ASSIGNMENT ( #154, #147, ( #8 ) ) ;
#173 = CC_DESIGN_DATE_AND_TIME_ASSIGNMENT ( #92, #41, ( #79 ) ) ;
#174 = LOCAL_TIME ( 10, 47, 37.00000000000000000, #46 ) ;
#175 = DIRECTION ( 'NONE',  ( 0.000000000000000000, 0.000000000000000000, -1.000000000000000000 ) ) ;
ENDSEC;
END-ISO-10303-21;
