ISO-10303-21;
HEADER;
FILE_DESCRIPTION (( 'STEP AP203' ),
    '1' );
FILE_NAME ('Web Model 14959_14985.step',
    '2020-07-27T18:33:30',
    ( '' ),
    ( '' ),
    'SwSTEP 2.0',
    'SolidWorks 2018',
    '' );
FILE_SCHEMA (( 'CONFIG_CONTROL_DESIGN' ));
ENDSEC;

DATA;
#1 = CC_DESIGN_APPROVAL ( #169, ( #76 ) ) ;
#2 = APPROVAL_ROLE ( '' ) ;
#3 = ORIENTED_EDGE ( 'NONE', *, *, #161, .T. ) ;
#4 = CC_DESIGN_APPROVAL ( #109, ( #98 ) ) ;
#5 = EDGE_CURVE ( 'NONE', #14, #9, #112, .T. ) ;
#6 = EDGE_CURVE ( 'NONE', #159, #135, #103, .T. ) ;
#7 = COORDINATED_UNIVERSAL_TIME_OFFSET ( 5, 0, .BEHIND. ) ;
#8 =( NAMED_UNIT ( * ) PLANE_ANGLE_UNIT ( ) SI_UNIT ( $, .RADIAN. ) );
#9 = VERTEX_POINT ( 'NONE', #175 ) ;
#10 = PRODUCT_DEFINITION_SHAPE ( 'NONE', 'NONE',  #76 ) ;
#11 = ADVANCED_FACE ( 'NONE', ( #99 ), #170, .T. ) ;
#12 = CIRCLE ( 'NONE', #86, 6.250000000000000000 ) ;
#13 = PERSON_AND_ORGANIZATION ( #119, #137 ) ;
#14 = VERTEX_POINT ( 'NONE', #139 ) ;
#15 = AXIS2_PLACEMENT_3D ( 'NONE', #77, #40, #166 ) ;
#16 = DATE_AND_TIME ( #100, #142 ) ;
#17 = PERSON_AND_ORGANIZATION_ROLE ( 'creator' ) ;
#18 = PERSON_AND_ORGANIZATION_ROLE ( 'design_supplier' ) ;
#19 = ORIENTED_EDGE ( 'NONE', *, *, #6, .T. ) ;
#20 = LOCAL_TIME ( 14, 33, 30.00000000000000000, #64 ) ;
#21 = CARTESIAN_POINT ( 'NONE',  ( -1.500000000000000000, 0.0000000000000000000, 0.0000000000000000000 ) ) ;
#22 =( GEOMETRIC_REPRESENTATION_CONTEXT ( 3 ) GLOBAL_UNCERTAINTY_ASSIGNED_CONTEXT ( ( #106 ) ) GLOBAL_UNIT_ASSIGNED_CONTEXT ( ( #143, #8, #110 ) ) REPRESENTATION_CONTEXT ( 'NONE', 'WORKASPACE' ) );
#23 = COORDINATED_UNIVERSAL_TIME_OFFSET ( 5, 0, .BEHIND. ) ;
#24 = APPLICATION_CONTEXT ( 'configuration controlled 3d designs of mechanical parts and assemblies' ) ;
#25 = DIRECTION ( 'NONE',  ( 0.0000000000000000000, 0.0000000000000000000, -1.000000000000000000 ) ) ;
#26 = LOCAL_TIME ( 14, 33, 30.00000000000000000, #168 ) ;
#27 = CC_DESIGN_SECURITY_CLASSIFICATION ( #98, ( #65 ) ) ;
#28 = EDGE_LOOP ( 'NONE', ( #3, #19 ) ) ;
#29 = PERSON_AND_ORGANIZATION ( #119, #137 ) ;
#30 = DATE_AND_TIME ( #145, #32 ) ;
#31 = ORIENTED_EDGE ( 'NONE', *, *, #136, .F. ) ;
#32 = LOCAL_TIME ( 14, 33, 30.00000000000000000, #7 ) ;
#33 = DIRECTION ( 'NONE',  ( -1.000000000000000000, -0.0000000000000000000, -0.0000000000000000000 ) ) ;
#34 = DIRECTION ( 'NONE',  ( 1.000000000000000000, 0.0000000000000000000, 0.0000000000000000000 ) ) ;
#35 = ORIENTED_EDGE ( 'NONE', *, *, #39, .T. ) ;
#36 = APPROVAL_ROLE ( '' ) ;
#37 = PRODUCT_RELATED_PRODUCT_CATEGORY ( 'detail', '', ( #95 ) ) ;
#38 = APPROVAL_STATUS ( 'not_yet_approved' ) ;
#39 = EDGE_CURVE ( 'NONE', #135, #14, #163, .T. ) ;
#40 = DIRECTION ( 'NONE',  ( 1.000000000000000000, 0.0000000000000000000, 0.0000000000000000000 ) ) ;
#41 = LINE ( 'NONE', #80, #171 ) ;
#42 = CARTESIAN_POINT ( 'NONE',  ( 1.500000000000000000, 7.654042494670957606E-16, -6.250000000000000000 ) ) ;
#43 = DIRECTION ( 'NONE',  ( 0.0000000000000000000, 0.0000000000000000000, -1.000000000000000000 ) ) ;
#44 = CC_DESIGN_DATE_AND_TIME_ASSIGNMENT ( #30, #78, ( #76 ) ) ;
#45 = ADVANCED_FACE ( 'NONE', ( #150 ), #132, .T. ) ;
#46 = ORIENTED_EDGE ( 'NONE', *, *, #105, .F. ) ;
#47 = APPROVAL_DATE_TIME ( #117, #109 ) ;
#48 = DIRECTION ( 'NONE',  ( 0.0000000000000000000, 0.0000000000000000000, 1.000000000000000000 ) ) ;
#49 = DATE_TIME_ROLE ( 'classification_date' ) ;
#50 = PERSON_AND_ORGANIZATION_ROLE ( 'creator' ) ;
#51 = AXIS2_PLACEMENT_3D ( 'NONE', #61, #33, #48 ) ;
#52 = SECURITY_CLASSIFICATION_LEVEL ( 'unclassified' ) ;
#53 = CARTESIAN_POINT ( 'NONE',  ( 1.500000000000000000, 0.0000000000000000000, 0.0000000000000000000 ) ) ;
#54 = CC_DESIGN_PERSON_AND_ORGANIZATION_ASSIGNMENT ( #88, #17, ( #76 ) ) ;
#55 = PLANE ( 'NONE',  #81 ) ;
#56 = DIRECTION ( 'NONE',  ( 1.000000000000000000, 0.0000000000000000000, 0.0000000000000000000 ) ) ;
#57 = CALENDAR_DATE ( 2020, 27, 7 ) ;
#58 = AXIS2_PLACEMENT_3D ( 'NONE', #69, #120, #43 ) ;
#59 = APPROVAL_DATE_TIME ( #16, #72 ) ;
#60 = ORIENTED_EDGE ( 'NONE', *, *, #6, .F. ) ;
#61 = CARTESIAN_POINT ( 'NONE',  ( 1.500000000000000000, 0.0000000000000000000, 0.0000000000000000000 ) ) ;
#62 = ORIENTED_EDGE ( 'NONE', *, *, #136, .T. ) ;
#63 = DATE_AND_TIME ( #121, #79 ) ;
#64 = COORDINATED_UNIVERSAL_TIME_OFFSET ( 5, 0, .BEHIND. ) ;
#65 = PRODUCT_DEFINITION_FORMATION_WITH_SPECIFIED_SOURCE ( 'ANY', '', #95, .NOT_KNOWN. ) ;
#66 = DIRECTION ( 'NONE',  ( 0.0000000000000000000, 0.0000000000000000000, 1.000000000000000000 ) ) ;
#67 = FACE_OUTER_BOUND ( 'NONE', #111, .T. ) ;
#68 = VECTOR ( 'NONE', #162, 1000.000000000000000 ) ;
#69 = CARTESIAN_POINT ( 'NONE',  ( 1.500000000000000000, 0.0000000000000000000, 0.0000000000000000000 ) ) ;
#70 = DIRECTION ( 'NONE',  ( 1.000000000000000000, 0.0000000000000000000, 0.0000000000000000000 ) ) ;
#71 = CIRCLE ( 'NONE', #58, 6.250000000000000000 ) ;
#72 = APPROVAL ( #38, 'UNSPECIFIED' ) ;
#73 = CC_DESIGN_PERSON_AND_ORGANIZATION_ASSIGNMENT ( #29, #108, ( #95 ) ) ;
#74 = CARTESIAN_POINT ( 'NONE',  ( -1.500000000000000000, 0.0000000000000000000, 0.0000000000000000000 ) ) ;
#75 = PERSON_AND_ORGANIZATION_ROLE ( 'classification_officer' ) ;
#76 = PRODUCT_DEFINITION ( 'UNKNOWN', '', #65, #116 ) ;
#77 = CARTESIAN_POINT ( 'NONE',  ( -1.500000000000000000, 0.0000000000000000000, 0.0000000000000000000 ) ) ;
#78 = DATE_TIME_ROLE ( 'creation_date' ) ;
#79 = LOCAL_TIME ( 14, 33, 30.00000000000000000, #23 ) ;
#80 = CARTESIAN_POINT ( 'NONE',  ( 1.500000000000000000, 7.654042494670957606E-16, -6.250000000000000000 ) ) ;
#81 = AXIS2_PLACEMENT_3D ( 'NONE', #157, #56, #83 ) ;
#82 = MECHANICAL_CONTEXT ( 'NONE', #24, 'mechanical' ) ;
#83 = DIRECTION ( 'NONE',  ( 0.0000000000000000000, 0.0000000000000000000, -1.000000000000000000 ) ) ;
#84 = FACE_OUTER_BOUND ( 'NONE', #28, .T. ) ;
#85 = AXIS2_PLACEMENT_3D ( 'NONE', #74, #34, #90 ) ;
#86 = AXIS2_PLACEMENT_3D ( 'NONE', #21, #70, #25 ) ;
#87 = APPROVAL_PERSON_ORGANIZATION ( #91, #109, #2 ) ;
#88 = PERSON_AND_ORGANIZATION ( #119, #137 ) ;
#89 = CC_DESIGN_DATE_AND_TIME_ASSIGNMENT ( #63, #49, ( #98 ) ) ;
#90 = DIRECTION ( 'NONE',  ( 0.0000000000000000000, 0.0000000000000000000, -1.000000000000000000 ) ) ;
#91 = PERSON_AND_ORGANIZATION ( #119, #137 ) ;
#92 = APPROVAL_STATUS ( 'not_yet_approved' ) ;
#93 = DIRECTION ( 'NONE',  ( 1.000000000000000000, 0.0000000000000000000, 0.0000000000000000000 ) ) ;
#94 = CARTESIAN_POINT ( 'NONE',  ( 1.500000000000000000, 0.0000000000000000000, 6.250000000000000000 ) ) ;
#95 = PRODUCT ( 'Web Model 14959_14985', 'Web Model 14959_14985', '', ( #82 ) ) ;
#96 = APPROVAL_PERSON_ORGANIZATION ( #130, #169, #164 ) ;
#97 = ADVANCED_FACE ( 'NONE', ( #67 ), #151, .F. ) ;
#98 = SECURITY_CLASSIFICATION ( '', '', #52 ) ;
#99 = FACE_OUTER_BOUND ( 'NONE', #158, .T. ) ;
#100 = CALENDAR_DATE ( 2020, 27, 7 ) ;
#101 = ORIENTED_EDGE ( 'NONE', *, *, #39, .F. ) ;
#102 = CARTESIAN_POINT ( 'NONE',  ( 1.500000000000000000, 0.0000000000000000000, 6.250000000000000000 ) ) ;
#103 = CIRCLE ( 'NONE', #141, 6.250000000000000000 ) ;
#104 = APPLICATION_PROTOCOL_DEFINITION ( 'international standard', 'config_control_design', 1994, #115 ) ;
#105 = EDGE_CURVE ( 'NONE', #159, #9, #41, .T. ) ;
#106 = UNCERTAINTY_MEASURE_WITH_UNIT (LENGTH_MEASURE( 1.000000000000000082E-05 ), #143, 'distance_accuracy_value', 'NONE');
#107 = APPROVAL_STATUS ( 'not_yet_approved' ) ;
#108 = PERSON_AND_ORGANIZATION_ROLE ( 'design_owner' ) ;
#109 = APPROVAL ( #92, 'UNSPECIFIED' ) ;
#110 =( NAMED_UNIT ( * ) SI_UNIT ( $, .STERADIAN. ) SOLID_ANGLE_UNIT ( ) );
#111 = EDGE_LOOP ( 'NONE', ( #167, #31 ) ) ;
#112 = CIRCLE ( 'NONE', #85, 6.250000000000000000 ) ;
#113 = DIRECTION ( 'NONE',  ( 0.0000000000000000000, 0.0000000000000000000, -1.000000000000000000 ) ) ;
#114 = APPROVAL_PERSON_ORGANIZATION ( #126, #72, #36 ) ;
#115 = APPLICATION_CONTEXT ( 'configuration controlled 3d designs of mechanical parts and assemblies' ) ;
#116 = DESIGN_CONTEXT ( 'detailed design', #115, 'design' ) ;
#117 = DATE_AND_TIME ( #57, #26 ) ;
#118 = CARTESIAN_POINT ( 'NONE',  ( 0.0000000000000000000, 0.0000000000000000000, 0.0000000000000000000 ) ) ;
#119 = PERSON ( 'UNSPECIFIED', 'UNSPECIFIED', 'UNSPECIFIED', ('UNSPECIFIED'), ('UNSPECIFIED'), ('UNSPECIFIED') ) ;
#120 = DIRECTION ( 'NONE',  ( 1.000000000000000000, 0.0000000000000000000, 0.0000000000000000000 ) ) ;
#121 = CALENDAR_DATE ( 2020, 27, 7 ) ;
#122 = DATE_AND_TIME ( #152, #20 ) ;
#123 = CC_DESIGN_APPROVAL ( #72, ( #65 ) ) ;
#124 = ORIENTED_EDGE ( 'NONE', *, *, #161, .F. ) ;
#125 = DIRECTION ( 'NONE',  ( 1.000000000000000000, 0.0000000000000000000, 0.0000000000000000000 ) ) ;
#126 = PERSON_AND_ORGANIZATION ( #119, #137 ) ;
#127 = AXIS2_PLACEMENT_3D ( 'NONE', #118, #153, #93 ) ;
#128 = CC_DESIGN_PERSON_AND_ORGANIZATION_ASSIGNMENT ( #13, #50, ( #65 ) ) ;
#129 = SHAPE_DEFINITION_REPRESENTATION ( #10, #160 ) ;
#130 = PERSON_AND_ORGANIZATION ( #119, #137 ) ;
#131 = CC_DESIGN_PERSON_AND_ORGANIZATION_ASSIGNMENT ( #149, #18, ( #65 ) ) ;
#132 = CYLINDRICAL_SURFACE ( 'NONE', #146, 6.250000000000000000 ) ;
#133 = COORDINATED_UNIVERSAL_TIME_OFFSET ( 5, 0, .BEHIND. ) ;
#134 = PERSON_AND_ORGANIZATION ( #119, #137 ) ;
#135 = VERTEX_POINT ( 'NONE', #94 ) ;
#136 = EDGE_CURVE ( 'NONE', #9, #14, #12, .T. ) ;
#137 = ORGANIZATION ( 'UNSPECIFIED', 'UNSPECIFIED', '' ) ;
#138 = CARTESIAN_POINT ( 'NONE',  ( 1.500000000000000000, 0.0000000000000000000, 0.0000000000000000000 ) ) ;
#139 = CARTESIAN_POINT ( 'NONE',  ( -1.500000000000000000, 0.0000000000000000000, 6.250000000000000000 ) ) ;
#140 = DIRECTION ( 'NONE',  ( -1.000000000000000000, -0.0000000000000000000, -0.0000000000000000000 ) ) ;
#141 = AXIS2_PLACEMENT_3D ( 'NONE', #138, #125, #113 ) ;
#142 = LOCAL_TIME ( 14, 33, 30.00000000000000000, #133 ) ;
#143 =( LENGTH_UNIT ( ) NAMED_UNIT ( * ) SI_UNIT ( .MILLI., .METRE. ) );
#144 = DIRECTION ( 'NONE',  ( -1.000000000000000000, -0.0000000000000000000, -0.0000000000000000000 ) ) ;
#145 = CALENDAR_DATE ( 2020, 27, 7 ) ;
#146 = AXIS2_PLACEMENT_3D ( 'NONE', #53, #140, #66 ) ;
#147 = MANIFOLD_SOLID_BREP ( 'Boss-Extrude1', #172 ) ;
#148 = APPROVAL_DATE_TIME ( #122, #169 ) ;
#149 = PERSON_AND_ORGANIZATION ( #119, #137 ) ;
#150 = FACE_OUTER_BOUND ( 'NONE', #165, .T. ) ;
#151 = PLANE ( 'NONE',  #15 ) ;
#152 = CALENDAR_DATE ( 2020, 27, 7 ) ;
#153 = DIRECTION ( 'NONE',  ( 0.0000000000000000000, 0.0000000000000000000, 1.000000000000000000 ) ) ;
#154 = APPLICATION_PROTOCOL_DEFINITION ( 'international standard', 'config_control_design', 1994, #24 ) ;
#155 = CC_DESIGN_PERSON_AND_ORGANIZATION_ASSIGNMENT ( #134, #75, ( #98 ) ) ;
#156 = ORIENTED_EDGE ( 'NONE', *, *, #105, .T. ) ;
#157 = CARTESIAN_POINT ( 'NONE',  ( 1.500000000000000000, 0.0000000000000000000, 0.0000000000000000000 ) ) ;
#158 = EDGE_LOOP ( 'NONE', ( #60, #156, #62, #101 ) ) ;
#159 = VERTEX_POINT ( 'NONE', #42 ) ;
#160 = ADVANCED_BREP_SHAPE_REPRESENTATION ( 'Web Model 14959_14985', ( #147, #127 ), #22 ) ;
#161 = EDGE_CURVE ( 'NONE', #135, #159, #71, .T. ) ;
#162 = DIRECTION ( 'NONE',  ( -1.000000000000000000, -0.0000000000000000000, -0.0000000000000000000 ) ) ;
#163 = LINE ( 'NONE', #102, #68 ) ;
#164 = APPROVAL_ROLE ( '' ) ;
#165 = EDGE_LOOP ( 'NONE', ( #46, #124, #35, #174 ) ) ;
#166 = DIRECTION ( 'NONE',  ( 0.0000000000000000000, 0.0000000000000000000, -1.000000000000000000 ) ) ;
#167 = ORIENTED_EDGE ( 'NONE', *, *, #5, .F. ) ;
#168 = COORDINATED_UNIVERSAL_TIME_OFFSET ( 5, 0, .BEHIND. ) ;
#169 = APPROVAL ( #107, 'UNSPECIFIED' ) ;
#170 = CYLINDRICAL_SURFACE ( 'NONE', #51, 6.250000000000000000 ) ;
#171 = VECTOR ( 'NONE', #144, 1000.000000000000000 ) ;
#172 = CLOSED_SHELL ( 'NONE', ( #11, #45, #173, #97 ) ) ;
#173 = ADVANCED_FACE ( 'NONE', ( #84 ), #55, .T. ) ;
#174 = ORIENTED_EDGE ( 'NONE', *, *, #5, .T. ) ;
#175 = CARTESIAN_POINT ( 'NONE',  ( -1.500000000000000000, 7.654042494670957606E-16, -6.250000000000000000 ) ) ;
ENDSEC;
END-ISO-10303-21;
