ISO-10303-21;
HEADER;
FILE_DESCRIPTION (( 'STEP AP203' ),
    '1' );
FILE_NAME ('ISP DLC Silicon_16818.step',
    '2021-01-06T00:47:55',
    ( '' ),
    ( '' ),
    'SwSTEP 2.0',
    'SolidWorks 2018',
    '' );
FILE_SCHEMA (( 'CONFIG_CONTROL_DESIGN' ));
ENDSEC;

DATA;
#1 = CC_DESIGN_SECURITY_CLASSIFICATION ( #16, ( #29 ) ) ;
#2 = VECTOR ( 'NONE', #163, 1000.000000000000000 ) ;
#3 = CALENDAR_DATE ( 2021, 5, 1 ) ;
#4 = DIRECTION ( 'NONE',  ( -0.0000000000000000000, -0.0000000000000000000, -1.000000000000000000 ) ) ;
#5 = ORGANIZATION ( 'UNSPECIFIED', 'UNSPECIFIED', '' ) ;
#6 = APPLICATION_PROTOCOL_DEFINITION ( 'international standard', 'config_control_design', 1994, #36 ) ;
#7 = APPLICATION_CONTEXT ( 'configuration controlled 3d designs of mechanical parts and assemblies' ) ;
#8 = EDGE_CURVE ( 'NONE', #9, #158, #67, .T. ) ;
#9 = VERTEX_POINT ( 'NONE', #160 ) ;
#10 = APPROVAL_STATUS ( 'not_yet_approved' ) ;
#11 = ADVANCED_BREP_SHAPE_REPRESENTATION ( 'ISP DLC Silicon_16818', ( #175, #94 ), #141 ) ;
#12 = CALENDAR_DATE ( 2021, 5, 1 ) ;
#13 = DATE_TIME_ROLE ( 'classification_date' ) ;
#14 = PRODUCT_DEFINITION ( 'UNKNOWN', '', #29, #92 ) ;
#15 = CC_DESIGN_DATE_AND_TIME_ASSIGNMENT ( #48, #13, ( #16 ) ) ;
#16 = SECURITY_CLASSIFICATION ( '', '', #132 ) ;
#17 = AXIS2_PLACEMENT_3D ( 'NONE', #165, #50, #147 ) ;
#18 = APPROVAL_ROLE ( '' ) ;
#19 = LOCAL_TIME ( 19, 47, 55.00000000000000000, #168 ) ;
#20 =( NAMED_UNIT ( * ) PLANE_ANGLE_UNIT ( ) SI_UNIT ( $, .RADIAN. ) );
#21 = MECHANICAL_CONTEXT ( 'NONE', #36, 'mechanical' ) ;
#22 = CARTESIAN_POINT ( 'NONE',  ( 0.0000000000000000000, 0.0000000000000000000, 0.0000000000000000000 ) ) ;
#23 = DIRECTION ( 'NONE',  ( 0.0000000000000000000, 0.0000000000000000000, 1.000000000000000000 ) ) ;
#24 = APPROVAL ( #55, 'UNSPECIFIED' ) ;
#25 = FACE_OUTER_BOUND ( 'NONE', #37, .T. ) ;
#26 = APPROVAL_DATE_TIME ( #40, #130 ) ;
#27 = CC_DESIGN_PERSON_AND_ORGANIZATION_ASSIGNMENT ( #39, #116, ( #16 ) ) ;
#28 = PERSON_AND_ORGANIZATION ( #139, #5 ) ;
#29 = PRODUCT_DEFINITION_FORMATION_WITH_SPECIFIED_SOURCE ( 'ANY', '', #63, .NOT_KNOWN. ) ;
#30 = FACE_OUTER_BOUND ( 'NONE', #47, .T. ) ;
#31 = EDGE_CURVE ( 'NONE', #158, #9, #57, .T. ) ;
#32 = CALENDAR_DATE ( 2021, 5, 1 ) ;
#33 = CARTESIAN_POINT ( 'NONE',  ( 0.0000000000000000000, 0.0000000000000000000, 3.000000000000000000 ) ) ;
#34 = EDGE_LOOP ( 'NONE', ( #138, #60, #95, #140 ) ) ;
#35 = PLANE ( 'NONE',  #58 ) ;
#36 = APPLICATION_CONTEXT ( 'configuration controlled 3d designs of mechanical parts and assemblies' ) ;
#37 = EDGE_LOOP ( 'NONE', ( #93, #97 ) ) ;
#38 = CYLINDRICAL_SURFACE ( 'NONE', #118, 38.10000000000000142 ) ;
#39 = PERSON_AND_ORGANIZATION ( #139, #5 ) ;
#40 = DATE_AND_TIME ( #102, #172 ) ;
#41 = EDGE_CURVE ( 'NONE', #9, #44, #61, .T. ) ;
#42 = DIRECTION ( 'NONE',  ( -1.000000000000000000, 0.0000000000000000000, 0.0000000000000000000 ) ) ;
#43 = DIRECTION ( 'NONE',  ( 1.000000000000000000, 0.0000000000000000000, 0.0000000000000000000 ) ) ;
#44 = VERTEX_POINT ( 'NONE', #68 ) ;
#45 = DATE_AND_TIME ( #12, #156 ) ;
#46 = ADVANCED_FACE ( 'NONE', ( #25 ), #35, .T. ) ;
#47 = EDGE_LOOP ( 'NONE', ( #72, #106 ) ) ;
#48 = DATE_AND_TIME ( #3, #107 ) ;
#49 = DIRECTION ( 'NONE',  ( 1.000000000000000000, 0.0000000000000000000, -0.0000000000000000000 ) ) ;
#50 = DIRECTION ( 'NONE',  ( 0.0000000000000000000, 0.0000000000000000000, 1.000000000000000000 ) ) ;
#51 = DIRECTION ( 'NONE',  ( 0.0000000000000000000, 0.0000000000000000000, 1.000000000000000000 ) ) ;
#52 = DIRECTION ( 'NONE',  ( 0.0000000000000000000, 0.0000000000000000000, 1.000000000000000000 ) ) ;
#53 = CARTESIAN_POINT ( 'NONE',  ( -38.10000000000000142, 0.0000000000000000000, 3.000000000000000000 ) ) ;
#54 = CIRCLE ( 'NONE', #86, 38.10000000000000142 ) ;
#55 = APPROVAL_STATUS ( 'not_yet_approved' ) ;
#56 = COORDINATED_UNIVERSAL_TIME_OFFSET ( 5, 0, .BEHIND. ) ;
#57 = CIRCLE ( 'NONE', #17, 38.10000000000000142 ) ;
#58 = AXIS2_PLACEMENT_3D ( 'NONE', #78, #51, #49 ) ;
#59 = APPROVAL_PERSON_ORGANIZATION ( #159, #74, #18 ) ;
#60 = ORIENTED_EDGE ( 'NONE', *, *, #41, .T. ) ;
#61 = LINE ( 'NONE', #144, #171 ) ;
#62 = DIRECTION ( 'NONE',  ( -0.0000000000000000000, -0.0000000000000000000, -1.000000000000000000 ) ) ;
#63 = PRODUCT ( 'ISP DLC Silicon_16818', 'ISP DLC Silicon_16818', '', ( #21 ) ) ;
#64 = FACE_OUTER_BOUND ( 'NONE', #166, .T. ) ;
#65 = CARTESIAN_POINT ( 'NONE',  ( 0.0000000000000000000, 0.0000000000000000000, 0.0000000000000000000 ) ) ;
#66 = DATE_AND_TIME ( #73, #19 ) ;
#67 = CIRCLE ( 'NONE', #108, 38.10000000000000142 ) ;
#68 = CARTESIAN_POINT ( 'NONE',  ( 38.10000000000000142, 4.665904304751416087E-15, 0.0000000000000000000 ) ) ;
#69 = EDGE_CURVE ( 'NONE', #44, #91, #155, .T. ) ;
#70 = APPROVAL_ROLE ( '' ) ;
#71 = PERSON_AND_ORGANIZATION ( #139, #5 ) ;
#72 = ORIENTED_EDGE ( 'NONE', *, *, #161, .F. ) ;
#73 = CALENDAR_DATE ( 2021, 5, 1 ) ;
#74 = APPROVAL ( #10, 'UNSPECIFIED' ) ;
#75 = ORIENTED_EDGE ( 'NONE', *, *, #150, .T. ) ;
#76 = PRODUCT_DEFINITION_SHAPE ( 'NONE', 'NONE',  #14 ) ;
#77 = DATE_AND_TIME ( #32, #173 ) ;
#78 = CARTESIAN_POINT ( 'NONE',  ( 0.0000000000000000000, 0.0000000000000000000, 3.000000000000000000 ) ) ;
#79 =( NAMED_UNIT ( * ) SI_UNIT ( $, .STERADIAN. ) SOLID_ANGLE_UNIT ( ) );
#80 = CLOSED_SHELL ( 'NONE', ( #124, #112, #46, #109 ) ) ;
#81 = CYLINDRICAL_SURFACE ( 'NONE', #83, 38.10000000000000142 ) ;
#82 = APPROVAL_DATE_TIME ( #66, #74 ) ;
#83 = AXIS2_PLACEMENT_3D ( 'NONE', #111, #62, #42 ) ;
#84 = APPROVAL_PERSON_ORGANIZATION ( #151, #24, #70 ) ;
#85 = APPROVAL_DATE_TIME ( #77, #24 ) ;
#86 = AXIS2_PLACEMENT_3D ( 'NONE', #65, #90, #43 ) ;
#87 = PERSON_AND_ORGANIZATION ( #139, #5 ) ;
#88 =( LENGTH_UNIT ( ) NAMED_UNIT ( * ) SI_UNIT ( .MILLI., .METRE. ) );
#89 = DIRECTION ( 'NONE',  ( 1.000000000000000000, 0.0000000000000000000, 0.0000000000000000000 ) ) ;
#90 = DIRECTION ( 'NONE',  ( 0.0000000000000000000, 0.0000000000000000000, 1.000000000000000000 ) ) ;
#91 = VERTEX_POINT ( 'NONE', #126 ) ;
#92 = DESIGN_CONTEXT ( 'detailed design', #7, 'design' ) ;
#93 = ORIENTED_EDGE ( 'NONE', *, *, #31, .T. ) ;
#94 = AXIS2_PLACEMENT_3D ( 'NONE', #22, #23, #89 ) ;
#95 = ORIENTED_EDGE ( 'NONE', *, *, #69, .T. ) ;
#96 = COORDINATED_UNIVERSAL_TIME_OFFSET ( 5, 0, .BEHIND. ) ;
#97 = ORIENTED_EDGE ( 'NONE', *, *, #8, .T. ) ;
#98 = DIRECTION ( 'NONE',  ( 0.0000000000000000000, 0.0000000000000000000, 1.000000000000000000 ) ) ;
#99 = FACE_OUTER_BOUND ( 'NONE', #34, .T. ) ;
#100 = AXIS2_PLACEMENT_3D ( 'NONE', #149, #98, #145 ) ;
#101 = DIRECTION ( 'NONE',  ( -0.0000000000000000000, -0.0000000000000000000, -1.000000000000000000 ) ) ;
#102 = CALENDAR_DATE ( 2021, 5, 1 ) ;
#103 = DIRECTION ( 'NONE',  ( 0.0000000000000000000, 0.0000000000000000000, 1.000000000000000000 ) ) ;
#104 = ORIENTED_EDGE ( 'NONE', *, *, #41, .F. ) ;
#105 = DIRECTION ( 'NONE',  ( 1.000000000000000000, 0.0000000000000000000, 0.0000000000000000000 ) ) ;
#106 = ORIENTED_EDGE ( 'NONE', *, *, #69, .F. ) ;
#107 = LOCAL_TIME ( 19, 47, 55.00000000000000000, #56 ) ;
#108 = AXIS2_PLACEMENT_3D ( 'NONE', #33, #52, #125 ) ;
#109 = ADVANCED_FACE ( 'NONE', ( #30 ), #169, .F. ) ;
#110 = CC_DESIGN_PERSON_AND_ORGANIZATION_ASSIGNMENT ( #28, #152, ( #29 ) ) ;
#111 = CARTESIAN_POINT ( 'NONE',  ( 0.0000000000000000000, 0.0000000000000000000, 3.000000000000000000 ) ) ;
#112 = ADVANCED_FACE ( 'NONE', ( #64 ), #81, .T. ) ;
#113 = CARTESIAN_POINT ( 'NONE',  ( 0.0000000000000000000, 0.0000000000000000000, 3.000000000000000000 ) ) ;
#114 = PERSON_AND_ORGANIZATION ( #139, #5 ) ;
#115 = CARTESIAN_POINT ( 'NONE',  ( 0.0000000000000000000, 0.0000000000000000000, 0.0000000000000000000 ) ) ;
#116 = PERSON_AND_ORGANIZATION_ROLE ( 'classification_officer' ) ;
#117 = SHAPE_DEFINITION_REPRESENTATION ( #76, #11 ) ;
#118 = AXIS2_PLACEMENT_3D ( 'NONE', #113, #4, #146 ) ;
#119 = PERSON_AND_ORGANIZATION_ROLE ( 'design_supplier' ) ;
#120 = CC_DESIGN_APPROVAL ( #74, ( #14 ) ) ;
#121 = UNCERTAINTY_MEASURE_WITH_UNIT (LENGTH_MEASURE( 1.000000000000000082E-05 ), #88, 'distance_accuracy_value', 'NONE');
#122 = CC_DESIGN_PERSON_AND_ORGANIZATION_ASSIGNMENT ( #114, #119, ( #29 ) ) ;
#123 = APPROVAL_PERSON_ORGANIZATION ( #136, #130, #134 ) ;
#124 = ADVANCED_FACE ( 'NONE', ( #99 ), #38, .T. ) ;
#125 = DIRECTION ( 'NONE',  ( 1.000000000000000000, 0.0000000000000000000, 0.0000000000000000000 ) ) ;
#126 = CARTESIAN_POINT ( 'NONE',  ( -38.10000000000000142, 0.0000000000000000000, 0.0000000000000000000 ) ) ;
#127 = COORDINATED_UNIVERSAL_TIME_OFFSET ( 5, 0, .BEHIND. ) ;
#128 = PERSON_AND_ORGANIZATION_ROLE ( 'design_owner' ) ;
#129 = PERSON_AND_ORGANIZATION_ROLE ( 'creator' ) ;
#130 = APPROVAL ( #137, 'UNSPECIFIED' ) ;
#131 = DATE_TIME_ROLE ( 'creation_date' ) ;
#132 = SECURITY_CLASSIFICATION_LEVEL ( 'unclassified' ) ;
#133 = CC_DESIGN_DATE_AND_TIME_ASSIGNMENT ( #45, #131, ( #14 ) ) ;
#134 = APPROVAL_ROLE ( '' ) ;
#135 = LINE ( 'NONE', #167, #2 ) ;
#136 = PERSON_AND_ORGANIZATION ( #139, #5 ) ;
#137 = APPROVAL_STATUS ( 'not_yet_approved' ) ;
#138 = ORIENTED_EDGE ( 'NONE', *, *, #8, .F. ) ;
#139 = PERSON ( 'UNSPECIFIED', 'UNSPECIFIED', 'UNSPECIFIED', ('UNSPECIFIED'), ('UNSPECIFIED'), ('UNSPECIFIED') ) ;
#140 = ORIENTED_EDGE ( 'NONE', *, *, #150, .F. ) ;
#141 =( GEOMETRIC_REPRESENTATION_CONTEXT ( 3 ) GLOBAL_UNCERTAINTY_ASSIGNED_CONTEXT ( ( #121 ) ) GLOBAL_UNIT_ASSIGNED_CONTEXT ( ( #88, #20, #79 ) ) REPRESENTATION_CONTEXT ( 'NONE', 'WORKASPACE' ) );
#142 = ORIENTED_EDGE ( 'NONE', *, *, #161, .T. ) ;
#143 = ORIENTED_EDGE ( 'NONE', *, *, #31, .F. ) ;
#144 = CARTESIAN_POINT ( 'NONE',  ( 38.10000000000000142, 4.665904304751416087E-15, 3.000000000000000000 ) ) ;
#145 = DIRECTION ( 'NONE',  ( 1.000000000000000000, 0.0000000000000000000, -0.0000000000000000000 ) ) ;
#146 = DIRECTION ( 'NONE',  ( -1.000000000000000000, 0.0000000000000000000, 0.0000000000000000000 ) ) ;
#147 = DIRECTION ( 'NONE',  ( 1.000000000000000000, 0.0000000000000000000, 0.0000000000000000000 ) ) ;
#148 = CC_DESIGN_PERSON_AND_ORGANIZATION_ASSIGNMENT ( #71, #128, ( #63 ) ) ;
#149 = CARTESIAN_POINT ( 'NONE',  ( 0.0000000000000000000, 0.0000000000000000000, 0.0000000000000000000 ) ) ;
#150 = EDGE_CURVE ( 'NONE', #158, #91, #135, .T. ) ;
#151 = PERSON_AND_ORGANIZATION ( #139, #5 ) ;
#152 = PERSON_AND_ORGANIZATION_ROLE ( 'creator' ) ;
#153 = COORDINATED_UNIVERSAL_TIME_OFFSET ( 5, 0, .BEHIND. ) ;
#154 = CC_DESIGN_APPROVAL ( #130, ( #29 ) ) ;
#155 = CIRCLE ( 'NONE', #164, 38.10000000000000142 ) ;
#156 = LOCAL_TIME ( 19, 47, 55.00000000000000000, #153 ) ;
#157 = PRODUCT_RELATED_PRODUCT_CATEGORY ( 'detail', '', ( #63 ) ) ;
#158 = VERTEX_POINT ( 'NONE', #53 ) ;
#159 = PERSON_AND_ORGANIZATION ( #139, #5 ) ;
#160 = CARTESIAN_POINT ( 'NONE',  ( 38.10000000000000142, 4.665904304751416087E-15, 3.000000000000000000 ) ) ;
#161 = EDGE_CURVE ( 'NONE', #91, #44, #54, .T. ) ;
#162 = CC_DESIGN_APPROVAL ( #24, ( #16 ) ) ;
#163 = DIRECTION ( 'NONE',  ( -0.0000000000000000000, -0.0000000000000000000, -1.000000000000000000 ) ) ;
#164 = AXIS2_PLACEMENT_3D ( 'NONE', #115, #103, #105 ) ;
#165 = CARTESIAN_POINT ( 'NONE',  ( 0.0000000000000000000, 0.0000000000000000000, 3.000000000000000000 ) ) ;
#166 = EDGE_LOOP ( 'NONE', ( #104, #143, #75, #142 ) ) ;
#167 = CARTESIAN_POINT ( 'NONE',  ( -38.10000000000000142, 0.0000000000000000000, 3.000000000000000000 ) ) ;
#168 = COORDINATED_UNIVERSAL_TIME_OFFSET ( 5, 0, .BEHIND. ) ;
#169 = PLANE ( 'NONE',  #100 ) ;
#170 = APPLICATION_PROTOCOL_DEFINITION ( 'international standard', 'config_control_design', 1994, #7 ) ;
#171 = VECTOR ( 'NONE', #101, 1000.000000000000000 ) ;
#172 = LOCAL_TIME ( 19, 47, 55.00000000000000000, #96 ) ;
#173 = LOCAL_TIME ( 19, 47, 55.00000000000000000, #127 ) ;
#174 = CC_DESIGN_PERSON_AND_ORGANIZATION_ASSIGNMENT ( #87, #129, ( #14 ) ) ;
#175 = MANIFOLD_SOLID_BREP ( 'Boss-Extrude1', #80 ) ;
ENDSEC;
END-ISO-10303-21;
