ISO-10303-21;
HEADER;
FILE_DESCRIPTION (( 'STEP AP203' ),
    '1' );
FILE_NAME ('Web Model 37689_37698.step',
    '2018-08-03T18:45:53',
    ( '' ),
    ( '' ),
    'SwSTEP 2.0',
    'SolidWorks 2016',
    '' );
FILE_SCHEMA (( 'CONFIG_CONTROL_DESIGN' ));
ENDSEC;

DATA;
#1 = DIRECTION ( 'NONE',  ( -0.0000000000000000000, -0.0000000000000000000, -1.000000000000000000 ) ) ;
#2 = ADVANCED_FACE ( 'NONE', ( #136 ), #159, .F. ) ;
#3 = CARTESIAN_POINT ( 'NONE',  ( 12.69999999999999900, 1.555301434917138400E-015, 3.174999999999999800 ) ) ;
#4 = LINE ( 'NONE', #158, #7 ) ;
#5 =( NAMED_UNIT ( * ) SI_UNIT ( $, .STERADIAN. ) SOLID_ANGLE_UNIT ( ) );
#6 = PRODUCT_DEFINITION ( 'UNKNOWN', '', #104, #87 ) ;
#7 = VECTOR ( 'NONE', #133, 1000.000000000000000 ) ;
#8 = APPROVAL_PERSON_ORGANIZATION ( #145, #16, #31 ) ;
#9 = PERSON_AND_ORGANIZATION ( #128, #68 ) ;
#10 = CIRCLE ( 'NONE', #172, 12.69999999999999900 ) ;
#11 = DIRECTION ( 'NONE',  ( 1.000000000000000000, 0.0000000000000000000, 0.0000000000000000000 ) ) ;
#12 = ORIENTED_EDGE ( 'NONE', *, *, #61, .T. ) ;
#13 = CALENDAR_DATE ( 2018, 3, 8 ) ;
#14 = CARTESIAN_POINT ( 'NONE',  ( -12.69999999999999900, 0.0000000000000000000, -3.174999999999999800 ) ) ;
#15 = PRODUCT_DEFINITION_SHAPE ( 'NONE', 'NONE',  #6 ) ;
#16 = APPROVAL ( #43, 'UNSPECIFIED' ) ;
#17 = APPLICATION_CONTEXT ( 'configuration controlled 3d designs of mechanical parts and assemblies' ) ;
#18 = APPLICATION_CONTEXT ( 'configuration controlled 3d designs of mechanical parts and assemblies' ) ;
#19 = EDGE_CURVE ( 'NONE', #165, #126, #10, .T. ) ;
#20 = DATE_AND_TIME ( #109, #160 ) ;
#21 = FACE_OUTER_BOUND ( 'NONE', #155, .T. ) ;
#22 = CALENDAR_DATE ( 2018, 3, 8 ) ;
#23 = CARTESIAN_POINT ( 'NONE',  ( 0.0000000000000000000, 0.0000000000000000000, -3.174999999999999800 ) ) ;
#24 = ORIENTED_EDGE ( 'NONE', *, *, #101, .F. ) ;
#25 = CARTESIAN_POINT ( 'NONE',  ( -12.69999999999999900, 0.0000000000000000000, 3.174999999999999800 ) ) ;
#26 = ORIENTED_EDGE ( 'NONE', *, *, #61, .F. ) ;
#27 = CC_DESIGN_PERSON_AND_ORGANIZATION_ASSIGNMENT ( #107, #29, ( #104 ) ) ;
#28 = ADVANCED_BREP_SHAPE_REPRESENTATION ( 'Web Model 37689_37698', ( #134, #118 ), #152 ) ;
#29 = PERSON_AND_ORGANIZATION_ROLE ( 'creator' ) ;
#30 = ORIENTED_EDGE ( 'NONE', *, *, #19, .F. ) ;
#31 = APPROVAL_ROLE ( '' ) ;
#32 = EDGE_CURVE ( 'NONE', #74, #126, #4, .T. ) ;
#33 = LOCAL_TIME ( 14, 45, 53.00000000000000000, #105 ) ;
#34 = PERSON_AND_ORGANIZATION ( #128, #68 ) ;
#35 = CYLINDRICAL_SURFACE ( 'NONE', #143, 12.69999999999999900 ) ;
#36 = CC_DESIGN_SECURITY_CLASSIFICATION ( #115, ( #104 ) ) ;
#37 = CIRCLE ( 'NONE', #46, 12.69999999999999900 ) ;
#38 = CC_DESIGN_PERSON_AND_ORGANIZATION_ASSIGNMENT ( #34, #40, ( #6 ) ) ;
#39 = DIRECTION ( 'NONE',  ( 0.0000000000000000000, 0.0000000000000000000, 1.000000000000000000 ) ) ;
#40 = PERSON_AND_ORGANIZATION_ROLE ( 'creator' ) ;
#41 = DIRECTION ( 'NONE',  ( 0.0000000000000000000, 0.0000000000000000000, 1.000000000000000000 ) ) ;
#42 = EDGE_CURVE ( 'NONE', #126, #165, #129, .T. ) ;
#43 = APPROVAL_STATUS ( 'not_yet_approved' ) ;
#44 = APPLICATION_PROTOCOL_DEFINITION ( 'international standard', 'config_control_design', 1994, #17 ) ;
#45 = PERSON_AND_ORGANIZATION ( #128, #68 ) ;
#46 = AXIS2_PLACEMENT_3D ( 'NONE', #139, #149, #66 ) ;
#47 = CALENDAR_DATE ( 2018, 3, 8 ) ;
#48 = CC_DESIGN_PERSON_AND_ORGANIZATION_ASSIGNMENT ( #86, #54, ( #115 ) ) ;
#49 = FACE_OUTER_BOUND ( 'NONE', #108, .T. ) ;
#50 = COORDINATED_UNIVERSAL_TIME_OFFSET ( 5, 0, .BEHIND. ) ;
#51 = DATE_AND_TIME ( #47, #77 ) ;
#52 = DIRECTION ( 'NONE',  ( -0.0000000000000000000, -0.0000000000000000000, -1.000000000000000000 ) ) ;
#53 = DIRECTION ( 'NONE',  ( 1.000000000000000000, 0.0000000000000000000, -0.0000000000000000000 ) ) ;
#54 = PERSON_AND_ORGANIZATION_ROLE ( 'classification_officer' ) ;
#55 =( LENGTH_UNIT ( ) NAMED_UNIT ( * ) SI_UNIT ( .MILLI., .METRE. ) );
#56 = APPROVAL_PERSON_ORGANIZATION ( #112, #83, #154 ) ;
#57 = PRODUCT_RELATED_PRODUCT_CATEGORY ( 'detail', '', ( #60 ) ) ;
#58 = ORIENTED_EDGE ( 'NONE', *, *, #42, .T. ) ;
#59 = CIRCLE ( 'NONE', #141, 12.69999999999999900 ) ;
#60 = PRODUCT ( 'Web Model 37689_37698', 'Web Model 37689_37698', '', ( #92 ) ) ;
#61 = EDGE_CURVE ( 'NONE', #169, #165, #64, .T. ) ;
#62 = ADVANCED_FACE ( 'NONE', ( #49 ), #82, .T. ) ;
#63 = APPROVAL_DATE_TIME ( #51, #83 ) ;
#64 = LINE ( 'NONE', #113, #125 ) ;
#65 = DIRECTION ( 'NONE',  ( 1.000000000000000000, 0.0000000000000000000, 0.0000000000000000000 ) ) ;
#66 = DIRECTION ( 'NONE',  ( 1.000000000000000000, 0.0000000000000000000, 0.0000000000000000000 ) ) ;
#67 = DATE_TIME_ROLE ( 'classification_date' ) ;
#68 = ORGANIZATION ( 'UNSPECIFIED', 'UNSPECIFIED', '' ) ;
#69 = APPROVAL_PERSON_ORGANIZATION ( #45, #124, #75 ) ;
#70 = CC_DESIGN_PERSON_AND_ORGANIZATION_ASSIGNMENT ( #146, #93, ( #60 ) ) ;
#71 = DATE_AND_TIME ( #22, #33 ) ;
#72 = PLANE ( 'NONE',  #96 ) ;
#73 = FACE_OUTER_BOUND ( 'NONE', #119, .T. ) ;
#74 = VERTEX_POINT ( 'NONE', #25 ) ;
#75 = APPROVAL_ROLE ( '' ) ;
#76 = CARTESIAN_POINT ( 'NONE',  ( 0.0000000000000000000, 0.0000000000000000000, 0.0000000000000000000 ) ) ;
#77 = LOCAL_TIME ( 14, 45, 53.00000000000000000, #50 ) ;
#78 = ORIENTED_EDGE ( 'NONE', *, *, #32, .T. ) ;
#79 = LOCAL_TIME ( 14, 45, 53.00000000000000000, #168 ) ;
#80 = ORIENTED_EDGE ( 'NONE', *, *, #101, .T. ) ;
#81 = EDGE_CURVE ( 'NONE', #169, #74, #59, .T. ) ;
#82 = CYLINDRICAL_SURFACE ( 'NONE', #88, 12.69999999999999900 ) ;
#83 = APPROVAL ( #123, 'UNSPECIFIED' ) ;
#84 = CC_DESIGN_DATE_AND_TIME_ASSIGNMENT ( #20, #138, ( #6 ) ) ;
#85 = DIRECTION ( 'NONE',  ( 1.000000000000000000, 0.0000000000000000000, -0.0000000000000000000 ) ) ;
#86 = PERSON_AND_ORGANIZATION ( #128, #68 ) ;
#87 = DESIGN_CONTEXT ( 'detailed design', #17, 'design' ) ;
#88 = AXIS2_PLACEMENT_3D ( 'NONE', #147, #52, #174 ) ;
#89 = DIRECTION ( 'NONE',  ( 0.0000000000000000000, 0.0000000000000000000, 1.000000000000000000 ) ) ;
#90 = APPROVAL_STATUS ( 'not_yet_approved' ) ;
#91 = ADVANCED_FACE ( 'NONE', ( #21 ), #72, .T. ) ;
#92 = MECHANICAL_CONTEXT ( 'NONE', #18, 'mechanical' ) ;
#93 = PERSON_AND_ORGANIZATION_ROLE ( 'design_owner' ) ;
#94 = EDGE_LOOP ( 'NONE', ( #171, #30 ) ) ;
#95 = CLOSED_SHELL ( 'NONE', ( #162, #62, #91, #2 ) ) ;
#96 = AXIS2_PLACEMENT_3D ( 'NONE', #114, #121, #53 ) ;
#97 = UNCERTAINTY_MEASURE_WITH_UNIT (LENGTH_MEASURE( 1.000000000000000100E-005 ), #55, 'distance_accuracy_value', 'NONE');
#98 = LOCAL_TIME ( 14, 45, 53.00000000000000000, #100 ) ;
#99 = DIRECTION ( 'NONE',  ( -1.000000000000000000, 0.0000000000000000000, 0.0000000000000000000 ) ) ;
#100 = COORDINATED_UNIVERSAL_TIME_OFFSET ( 5, 0, .BEHIND. ) ;
#101 = EDGE_CURVE ( 'NONE', #74, #169, #37, .T. ) ;
#102 = SECURITY_CLASSIFICATION_LEVEL ( 'unclassified' ) ;
#103 = DIRECTION ( 'NONE',  ( 0.0000000000000000000, 0.0000000000000000000, 1.000000000000000000 ) ) ;
#104 = PRODUCT_DEFINITION_FORMATION_WITH_SPECIFIED_SOURCE ( 'ANY', '', #60, .NOT_KNOWN. ) ;
#105 = COORDINATED_UNIVERSAL_TIME_OFFSET ( 5, 0, .BEHIND. ) ;
#106 = SHAPE_DEFINITION_REPRESENTATION ( #15, #28 ) ;
#107 = PERSON_AND_ORGANIZATION ( #128, #68 ) ;
#108 = EDGE_LOOP ( 'NONE', ( #26, #24, #78, #58 ) ) ;
#109 = CALENDAR_DATE ( 2018, 3, 8 ) ;
#110 = ORIENTED_EDGE ( 'NONE', *, *, #32, .F. ) ;
#111 = CC_DESIGN_DATE_AND_TIME_ASSIGNMENT ( #144, #67, ( #115 ) ) ;
#112 = PERSON_AND_ORGANIZATION ( #128, #68 ) ;
#113 = CARTESIAN_POINT ( 'NONE',  ( 12.69999999999999900, 1.555301434917138400E-015, 3.174999999999999800 ) ) ;
#114 = CARTESIAN_POINT ( 'NONE',  ( 0.0000000000000000000, 0.0000000000000000000, 3.174999999999999800 ) ) ;
#115 = SECURITY_CLASSIFICATION ( '', '', #102 ) ;
#116 = CARTESIAN_POINT ( 'NONE',  ( 0.0000000000000000000, 0.0000000000000000000, -3.174999999999999800 ) ) ;
#117 = CARTESIAN_POINT ( 'NONE',  ( 0.0000000000000000000, 0.0000000000000000000, -3.174999999999999800 ) ) ;
#118 = AXIS2_PLACEMENT_3D ( 'NONE', #76, #41, #161 ) ;
#119 = EDGE_LOOP ( 'NONE', ( #153, #12, #170, #110 ) ) ;
#120 = CARTESIAN_POINT ( 'NONE',  ( 12.69999999999999900, 1.555301434917138400E-015, -3.174999999999999800 ) ) ;
#121 = DIRECTION ( 'NONE',  ( 0.0000000000000000000, 0.0000000000000000000, 1.000000000000000000 ) ) ;
#122 = CARTESIAN_POINT ( 'NONE',  ( 0.0000000000000000000, 0.0000000000000000000, 3.174999999999999800 ) ) ;
#123 = APPROVAL_STATUS ( 'not_yet_approved' ) ;
#124 = APPROVAL ( #90, 'UNSPECIFIED' ) ;
#125 = VECTOR ( 'NONE', #1, 1000.000000000000000 ) ;
#126 = VERTEX_POINT ( 'NONE', #14 ) ;
#127 = CC_DESIGN_APPROVAL ( #16, ( #6 ) ) ;
#128 = PERSON ( 'UNSPECIFIED', 'UNSPECIFIED', 'UNSPECIFIED', ('UNSPECIFIED'), ('UNSPECIFIED'), ('UNSPECIFIED') ) ;
#129 = CIRCLE ( 'NONE', #173, 12.69999999999999900 ) ;
#130 = DIRECTION ( 'NONE',  ( 0.0000000000000000000, 0.0000000000000000000, 1.000000000000000000 ) ) ;
#131 = AXIS2_PLACEMENT_3D ( 'NONE', #117, #39, #85 ) ;
#132 = COORDINATED_UNIVERSAL_TIME_OFFSET ( 5, 0, .BEHIND. ) ;
#133 = DIRECTION ( 'NONE',  ( -0.0000000000000000000, -0.0000000000000000000, -1.000000000000000000 ) ) ;
#134 = MANIFOLD_SOLID_BREP ( 'Boss-Extrude1', #95 ) ;
#135 = CC_DESIGN_PERSON_AND_ORGANIZATION_ASSIGNMENT ( #9, #163, ( #104 ) ) ;
#136 = FACE_OUTER_BOUND ( 'NONE', #94, .T. ) ;
#137 = CARTESIAN_POINT ( 'NONE',  ( 0.0000000000000000000, 0.0000000000000000000, 3.174999999999999800 ) ) ;
#138 = DATE_TIME_ROLE ( 'creation_date' ) ;
#139 = CARTESIAN_POINT ( 'NONE',  ( 0.0000000000000000000, 0.0000000000000000000, 3.174999999999999800 ) ) ;
#140 = APPROVAL_DATE_TIME ( #175, #16 ) ;
#141 = AXIS2_PLACEMENT_3D ( 'NONE', #122, #103, #150 ) ;
#142 = CALENDAR_DATE ( 2018, 3, 8 ) ;
#143 = AXIS2_PLACEMENT_3D ( 'NONE', #137, #166, #99 ) ;
#144 = DATE_AND_TIME ( #13, #79 ) ;
#145 = PERSON_AND_ORGANIZATION ( #128, #68 ) ;
#146 = PERSON_AND_ORGANIZATION ( #128, #68 ) ;
#147 = CARTESIAN_POINT ( 'NONE',  ( 0.0000000000000000000, 0.0000000000000000000, 3.174999999999999800 ) ) ;
#148 = CC_DESIGN_APPROVAL ( #83, ( #104 ) ) ;
#149 = DIRECTION ( 'NONE',  ( 0.0000000000000000000, 0.0000000000000000000, 1.000000000000000000 ) ) ;
#150 = DIRECTION ( 'NONE',  ( 1.000000000000000000, 0.0000000000000000000, 0.0000000000000000000 ) ) ;
#151 =( NAMED_UNIT ( * ) PLANE_ANGLE_UNIT ( ) SI_UNIT ( $, .RADIAN. ) );
#152 =( GEOMETRIC_REPRESENTATION_CONTEXT ( 3 ) GLOBAL_UNCERTAINTY_ASSIGNED_CONTEXT ( ( #97 ) ) GLOBAL_UNIT_ASSIGNED_CONTEXT ( ( #55, #151, #5 ) ) REPRESENTATION_CONTEXT ( 'NONE', 'WORKASPACE' ) );
#153 = ORIENTED_EDGE ( 'NONE', *, *, #81, .F. ) ;
#154 = APPROVAL_ROLE ( '' ) ;
#155 = EDGE_LOOP ( 'NONE', ( #80, #157 ) ) ;
#156 = CC_DESIGN_APPROVAL ( #124, ( #115 ) ) ;
#157 = ORIENTED_EDGE ( 'NONE', *, *, #81, .T. ) ;
#158 = CARTESIAN_POINT ( 'NONE',  ( -12.69999999999999900, 0.0000000000000000000, 3.174999999999999800 ) ) ;
#159 = PLANE ( 'NONE',  #131 ) ;
#160 = LOCAL_TIME ( 14, 45, 53.00000000000000000, #132 ) ;
#161 = DIRECTION ( 'NONE',  ( 1.000000000000000000, 0.0000000000000000000, 0.0000000000000000000 ) ) ;
#162 = ADVANCED_FACE ( 'NONE', ( #73 ), #35, .T. ) ;
#163 = PERSON_AND_ORGANIZATION_ROLE ( 'design_supplier' ) ;
#164 = APPROVAL_DATE_TIME ( #71, #124 ) ;
#165 = VERTEX_POINT ( 'NONE', #120 ) ;
#166 = DIRECTION ( 'NONE',  ( -0.0000000000000000000, -0.0000000000000000000, -1.000000000000000000 ) ) ;
#167 = APPLICATION_PROTOCOL_DEFINITION ( 'international standard', 'config_control_design', 1994, #18 ) ;
#168 = COORDINATED_UNIVERSAL_TIME_OFFSET ( 5, 0, .BEHIND. ) ;
#169 = VERTEX_POINT ( 'NONE', #3 ) ;
#170 = ORIENTED_EDGE ( 'NONE', *, *, #19, .T. ) ;
#171 = ORIENTED_EDGE ( 'NONE', *, *, #42, .F. ) ;
#172 = AXIS2_PLACEMENT_3D ( 'NONE', #116, #130, #11 ) ;
#173 = AXIS2_PLACEMENT_3D ( 'NONE', #23, #89, #65 ) ;
#174 = DIRECTION ( 'NONE',  ( -1.000000000000000000, 0.0000000000000000000, 0.0000000000000000000 ) ) ;
#175 = DATE_AND_TIME ( #142, #98 ) ;
ENDSEC;
END-ISO-10303-21;
