ISO-10303-21;
HEADER;
FILE_DESCRIPTION (( 'STEP AP203' ),
    '1' );
FILE_NAME ('Web Model ZnSe Unctd_39394.step',
    '2018-09-27T18:10:59',
    ( '' ),
    ( '' ),
    'SwSTEP 2.0',
    'SolidWorks 2016',
    '' );
FILE_SCHEMA (( 'CONFIG_CONTROL_DESIGN' ));
ENDSEC;

DATA;
#1 = APPROVAL_DATE_TIME ( #101, #127 ) ;
#2 = DIRECTION ( 'NONE',  ( 0.0000000000000000000, 0.0000000000000000000, 1.000000000000000000 ) ) ;
#3 = CC_DESIGN_DATE_AND_TIME_ASSIGNMENT ( #63, #59, ( #174 ) ) ;
#4 = CARTESIAN_POINT ( 'NONE',  ( 0.0000000000000000000, 0.0000000000000000000, -0.5000000000000000000 ) ) ;
#5 = EDGE_LOOP ( 'NONE', ( #160, #128 ) ) ;
#6 = DIRECTION ( 'NONE',  ( 1.000000000000000000, 0.0000000000000000000, 0.0000000000000000000 ) ) ;
#7 = VECTOR ( 'NONE', #17, 1000.000000000000000 ) ;
#8 = APPLICATION_PROTOCOL_DEFINITION ( 'international standard', 'config_control_design', 1994, #84 ) ;
#9 = CC_DESIGN_PERSON_AND_ORGANIZATION_ASSIGNMENT ( #31, #170, ( #77 ) ) ;
#10 = VERTEX_POINT ( 'NONE', #138 ) ;
#11 = PERSON_AND_ORGANIZATION_ROLE ( 'creator' ) ;
#12 = AXIS2_PLACEMENT_3D ( 'NONE', #139, #65, #167 ) ;
#13 = EDGE_LOOP ( 'NONE', ( #146, #156 ) ) ;
#14 = PRODUCT_DEFINITION_FORMATION_WITH_SPECIFIED_SOURCE ( 'ANY', '', #52, .NOT_KNOWN. ) ;
#15 = APPROVAL_DATE_TIME ( #85, #134 ) ;
#16 = CYLINDRICAL_SURFACE ( 'NONE', #147, 12.69999999999999900 ) ;
#17 = DIRECTION ( 'NONE',  ( -0.0000000000000000000, -0.0000000000000000000, -1.000000000000000000 ) ) ;
#18 = DIRECTION ( 'NONE',  ( -1.000000000000000000, 0.0000000000000000000, 0.0000000000000000000 ) ) ;
#19 = DIRECTION ( 'NONE',  ( 0.0000000000000000000, 0.0000000000000000000, 1.000000000000000000 ) ) ;
#20 = PERSON_AND_ORGANIZATION ( #96, #89 ) ;
#21 = VECTOR ( 'NONE', #152, 1000.000000000000000 ) ;
#22 = APPROVAL ( #23, 'UNSPECIFIED' ) ;
#23 = APPROVAL_STATUS ( 'not_yet_approved' ) ;
#24 = APPROVAL_ROLE ( '' ) ;
#25 = EDGE_LOOP ( 'NONE', ( #34, #123, #114, #47 ) ) ;
#26 = CALENDAR_DATE ( 2018, 27, 9 ) ;
#27 = CALENDAR_DATE ( 2018, 27, 9 ) ;
#28 = CALENDAR_DATE ( 2018, 27, 9 ) ;
#29 = CARTESIAN_POINT ( 'NONE',  ( 0.0000000000000000000, 0.0000000000000000000, -0.5000000000000000000 ) ) ;
#30 = DIRECTION ( 'NONE',  ( 1.000000000000000000, 0.0000000000000000000, -0.0000000000000000000 ) ) ;
#31 = PERSON_AND_ORGANIZATION ( #96, #89 ) ;
#32 = APPROVAL_ROLE ( '' ) ;
#33 = PERSON_AND_ORGANIZATION ( #96, #89 ) ;
#34 = ORIENTED_EDGE ( 'NONE', *, *, #39, .F. ) ;
#35 = APPLICATION_PROTOCOL_DEFINITION ( 'international standard', 'config_control_design', 1994, #117 ) ;
#36 = CC_DESIGN_PERSON_AND_ORGANIZATION_ASSIGNMENT ( #64, #57, ( #14 ) ) ;
#37 = LINE ( 'NONE', #112, #7 ) ;
#38 = CARTESIAN_POINT ( 'NONE',  ( -12.69999999999999900, 0.0000000000000000000, -0.5000000000000000000 ) ) ;
#39 = EDGE_CURVE ( 'NONE', #106, #133, #165, .T. ) ;
#40 = APPROVAL_PERSON_ORGANIZATION ( #79, #134, #32 ) ;
#41 = EDGE_LOOP ( 'NONE', ( #69, #125, #144, #42 ) ) ;
#42 = ORIENTED_EDGE ( 'NONE', *, *, #136, .T. ) ;
#43 = DIRECTION ( 'NONE',  ( 1.000000000000000000, 0.0000000000000000000, -0.0000000000000000000 ) ) ;
#44 = PERSON_AND_ORGANIZATION ( #96, #89 ) ;
#45 = FACE_OUTER_BOUND ( 'NONE', #5, .T. ) ;
#46 = DIRECTION ( 'NONE',  ( 0.0000000000000000000, 0.0000000000000000000, 1.000000000000000000 ) ) ;
#47 = ORIENTED_EDGE ( 'NONE', *, *, #145, .F. ) ;
#48 = CC_DESIGN_APPROVAL ( #22, ( #14 ) ) ;
#49 = FACE_OUTER_BOUND ( 'NONE', #13, .T. ) ;
#50 = VERTEX_POINT ( 'NONE', #38 ) ;
#51 = EDGE_CURVE ( 'NONE', #133, #106, #175, .T. ) ;
#52 = PRODUCT ( 'Web Model ZnSe Unctd_39394', 'Web Model ZnSe Unctd_39394', '', ( #97 ) ) ;
#53 = CLOSED_SHELL ( 'NONE', ( #171, #103, #98, #122 ) ) ;
#54 = LOCAL_TIME ( 14, 10, 59.00000000000000000, #90 ) ;
#55 = DIRECTION ( 'NONE',  ( 0.0000000000000000000, 0.0000000000000000000, 1.000000000000000000 ) ) ;
#56 = LOCAL_TIME ( 14, 10, 59.00000000000000000, #94 ) ;
#57 = PERSON_AND_ORGANIZATION_ROLE ( 'creator' ) ;
#58 = FACE_OUTER_BOUND ( 'NONE', #41, .T. ) ;
#59 = DATE_TIME_ROLE ( 'creation_date' ) ;
#60 = ADVANCED_BREP_SHAPE_REPRESENTATION ( 'Web Model ZnSe Unctd_39394', ( #131, #73 ), #161 ) ;
#61 = CC_DESIGN_SECURITY_CLASSIFICATION ( #77, ( #14 ) ) ;
#62 = AXIS2_PLACEMENT_3D ( 'NONE', #4, #110, #30 ) ;
#63 = DATE_AND_TIME ( #26, #159 ) ;
#64 = PERSON_AND_ORGANIZATION ( #96, #89 ) ;
#65 = DIRECTION ( 'NONE',  ( 0.0000000000000000000, 0.0000000000000000000, 1.000000000000000000 ) ) ;
#66 = UNCERTAINTY_MEASURE_WITH_UNIT (LENGTH_MEASURE( 1.000000000000000100E-005 ), #70, 'distance_accuracy_value', 'NONE');
#67 = DESIGN_CONTEXT ( 'detailed design', #117, 'design' ) ;
#68 = DIRECTION ( 'NONE',  ( -0.0000000000000000000, -0.0000000000000000000, -1.000000000000000000 ) ) ;
#69 = ORIENTED_EDGE ( 'NONE', *, *, #76, .F. ) ;
#70 =( LENGTH_UNIT ( ) NAMED_UNIT ( * ) SI_UNIT ( .MILLI., .METRE. ) );
#71 = LINE ( 'NONE', #81, #21 ) ;
#72 = PERSON_AND_ORGANIZATION_ROLE ( 'design_supplier' ) ;
#73 = AXIS2_PLACEMENT_3D ( 'NONE', #157, #169, #6 ) ;
#74 = COORDINATED_UNIVERSAL_TIME_OFFSET ( 5, 0, .BEHIND. ) ;
#75 = CC_DESIGN_PERSON_AND_ORGANIZATION_ASSIGNMENT ( #111, #72, ( #14 ) ) ;
#76 = EDGE_CURVE ( 'NONE', #106, #10, #37, .T. ) ;
#77 = SECURITY_CLASSIFICATION ( '', '', #87 ) ;
#78 = DIRECTION ( 'NONE',  ( 1.000000000000000000, 0.0000000000000000000, 0.0000000000000000000 ) ) ;
#79 = PERSON_AND_ORGANIZATION ( #96, #89 ) ;
#80 = CARTESIAN_POINT ( 'NONE',  ( -12.69999999999999900, 0.0000000000000000000, 0.5000000000000000000 ) ) ;
#81 = CARTESIAN_POINT ( 'NONE',  ( -12.69999999999999900, 0.0000000000000000000, 0.5000000000000000000 ) ) ;
#82 =( NAMED_UNIT ( * ) SI_UNIT ( $, .STERADIAN. ) SOLID_ANGLE_UNIT ( ) );
#83 = AXIS2_PLACEMENT_3D ( 'NONE', #93, #68, #18 ) ;
#84 = APPLICATION_CONTEXT ( 'configuration controlled 3d designs of mechanical parts and assemblies' ) ;
#85 = DATE_AND_TIME ( #27, #54 ) ;
#86 = APPROVAL_PERSON_ORGANIZATION ( #20, #127, #24 ) ;
#87 = SECURITY_CLASSIFICATION_LEVEL ( 'unclassified' ) ;
#88 = APPROVAL_DATE_TIME ( #164, #22 ) ;
#89 = ORGANIZATION ( 'UNSPECIFIED', 'UNSPECIFIED', '' ) ;
#90 = COORDINATED_UNIVERSAL_TIME_OFFSET ( 5, 0, .BEHIND. ) ;
#91 = PRODUCT_DEFINITION_SHAPE ( 'NONE', 'NONE',  #174 ) ;
#92 = DIRECTION ( 'NONE',  ( 1.000000000000000000, 0.0000000000000000000, 0.0000000000000000000 ) ) ;
#93 = CARTESIAN_POINT ( 'NONE',  ( 0.0000000000000000000, 0.0000000000000000000, 0.5000000000000000000 ) ) ;
#94 = COORDINATED_UNIVERSAL_TIME_OFFSET ( 5, 0, .BEHIND. ) ;
#95 = LOCAL_TIME ( 14, 10, 59.00000000000000000, #74 ) ;
#96 = PERSON ( 'UNSPECIFIED', 'UNSPECIFIED', 'UNSPECIFIED', ('UNSPECIFIED'), ('UNSPECIFIED'), ('UNSPECIFIED') ) ;
#97 = MECHANICAL_CONTEXT ( 'NONE', #84, 'mechanical' ) ;
#98 = ADVANCED_FACE ( 'NONE', ( #49 ), #126, .T. ) ;
#99 = APPROVAL_STATUS ( 'not_yet_approved' ) ;
#100 = EDGE_CURVE ( 'NONE', #10, #50, #107, .T. ) ;
#101 = DATE_AND_TIME ( #28, #95 ) ;
#102 = DATE_TIME_ROLE ( 'classification_date' ) ;
#103 = ADVANCED_FACE ( 'NONE', ( #58 ), #16, .T. ) ;
#104 = AXIS2_PLACEMENT_3D ( 'NONE', #108, #19, #109 ) ;
#105 = CALENDAR_DATE ( 2018, 27, 9 ) ;
#106 = VERTEX_POINT ( 'NONE', #129 ) ;
#107 = CIRCLE ( 'NONE', #166, 12.69999999999999900 ) ;
#108 = CARTESIAN_POINT ( 'NONE',  ( 0.0000000000000000000, 0.0000000000000000000, 0.5000000000000000000 ) ) ;
#109 = DIRECTION ( 'NONE',  ( 1.000000000000000000, 0.0000000000000000000, 0.0000000000000000000 ) ) ;
#110 = DIRECTION ( 'NONE',  ( 0.0000000000000000000, 0.0000000000000000000, 1.000000000000000000 ) ) ;
#111 = PERSON_AND_ORGANIZATION ( #96, #89 ) ;
#112 = CARTESIAN_POINT ( 'NONE',  ( 12.69999999999999900, 1.555301434917138400E-015, 0.5000000000000000000 ) ) ;
#113 = CC_DESIGN_APPROVAL ( #134, ( #77 ) ) ;
#114 = ORIENTED_EDGE ( 'NONE', *, *, #100, .T. ) ;
#115 = CC_DESIGN_PERSON_AND_ORGANIZATION_ASSIGNMENT ( #118, #116, ( #52 ) ) ;
#116 = PERSON_AND_ORGANIZATION_ROLE ( 'design_owner' ) ;
#117 = APPLICATION_CONTEXT ( 'configuration controlled 3d designs of mechanical parts and assemblies' ) ;
#118 = PERSON_AND_ORGANIZATION ( #96, #89 ) ;
#119 = APPROVAL_STATUS ( 'not_yet_approved' ) ;
#120 = CC_DESIGN_DATE_AND_TIME_ASSIGNMENT ( #173, #102, ( #77 ) ) ;
#121 = APPROVAL_ROLE ( '' ) ;
#122 = ADVANCED_FACE ( 'NONE', ( #45 ), #137, .F. ) ;
#123 = ORIENTED_EDGE ( 'NONE', *, *, #76, .T. ) ;
#124 = APPROVAL_PERSON_ORGANIZATION ( #33, #22, #121 ) ;
#125 = ORIENTED_EDGE ( 'NONE', *, *, #51, .F. ) ;
#126 = PLANE ( 'NONE',  #162 ) ;
#127 = APPROVAL ( #99, 'UNSPECIFIED' ) ;
#128 = ORIENTED_EDGE ( 'NONE', *, *, #100, .F. ) ;
#129 = CARTESIAN_POINT ( 'NONE',  ( 12.69999999999999900, 1.555301434917138400E-015, 0.5000000000000000000 ) ) ;
#130 = CIRCLE ( 'NONE', #12, 12.69999999999999900 ) ;
#131 = MANIFOLD_SOLID_BREP ( 'Boss-Extrude1', #53 ) ;
#132 = COORDINATED_UNIVERSAL_TIME_OFFSET ( 5, 0, .BEHIND. ) ;
#133 = VERTEX_POINT ( 'NONE', #80 ) ;
#134 = APPROVAL ( #119, 'UNSPECIFIED' ) ;
#135 = COORDINATED_UNIVERSAL_TIME_OFFSET ( 5, 0, .BEHIND. ) ;
#136 = EDGE_CURVE ( 'NONE', #50, #10, #130, .T. ) ;
#137 = PLANE ( 'NONE',  #62 ) ;
#138 = CARTESIAN_POINT ( 'NONE',  ( 12.69999999999999900, 1.555301434917138400E-015, -0.5000000000000000000 ) ) ;
#139 = CARTESIAN_POINT ( 'NONE',  ( 0.0000000000000000000, 0.0000000000000000000, -0.5000000000000000000 ) ) ;
#140 = SHAPE_DEFINITION_REPRESENTATION ( #91, #60 ) ;
#141 = CARTESIAN_POINT ( 'NONE',  ( 0.0000000000000000000, 0.0000000000000000000, 0.5000000000000000000 ) ) ;
#142 = CALENDAR_DATE ( 2018, 27, 9 ) ;
#143 = CC_DESIGN_APPROVAL ( #127, ( #174 ) ) ;
#144 = ORIENTED_EDGE ( 'NONE', *, *, #145, .T. ) ;
#145 = EDGE_CURVE ( 'NONE', #133, #50, #71, .T. ) ;
#146 = ORIENTED_EDGE ( 'NONE', *, *, #51, .T. ) ;
#147 = AXIS2_PLACEMENT_3D ( 'NONE', #154, #168, #151 ) ;
#148 = FACE_OUTER_BOUND ( 'NONE', #25, .T. ) ;
#149 = CARTESIAN_POINT ( 'NONE',  ( 0.0000000000000000000, 0.0000000000000000000, 0.5000000000000000000 ) ) ;
#150 = CC_DESIGN_PERSON_AND_ORGANIZATION_ASSIGNMENT ( #44, #11, ( #174 ) ) ;
#151 = DIRECTION ( 'NONE',  ( -1.000000000000000000, 0.0000000000000000000, 0.0000000000000000000 ) ) ;
#152 = DIRECTION ( 'NONE',  ( -0.0000000000000000000, -0.0000000000000000000, -1.000000000000000000 ) ) ;
#153 = PRODUCT_RELATED_PRODUCT_CATEGORY ( 'detail', '', ( #52 ) ) ;
#154 = CARTESIAN_POINT ( 'NONE',  ( 0.0000000000000000000, 0.0000000000000000000, 0.5000000000000000000 ) ) ;
#155 = AXIS2_PLACEMENT_3D ( 'NONE', #149, #46, #78 ) ;
#156 = ORIENTED_EDGE ( 'NONE', *, *, #39, .T. ) ;
#157 = CARTESIAN_POINT ( 'NONE',  ( 0.0000000000000000000, 0.0000000000000000000, 0.0000000000000000000 ) ) ;
#158 =( NAMED_UNIT ( * ) PLANE_ANGLE_UNIT ( ) SI_UNIT ( $, .RADIAN. ) );
#159 = LOCAL_TIME ( 14, 10, 59.00000000000000000, #135 ) ;
#160 = ORIENTED_EDGE ( 'NONE', *, *, #136, .F. ) ;
#161 =( GEOMETRIC_REPRESENTATION_CONTEXT ( 3 ) GLOBAL_UNCERTAINTY_ASSIGNED_CONTEXT ( ( #66 ) ) GLOBAL_UNIT_ASSIGNED_CONTEXT ( ( #70, #158, #82 ) ) REPRESENTATION_CONTEXT ( 'NONE', 'WORKASPACE' ) );
#162 = AXIS2_PLACEMENT_3D ( 'NONE', #141, #55, #43 ) ;
#163 = CYLINDRICAL_SURFACE ( 'NONE', #83, 12.69999999999999900 ) ;
#164 = DATE_AND_TIME ( #142, #56 ) ;
#165 = CIRCLE ( 'NONE', #155, 12.69999999999999900 ) ;
#166 = AXIS2_PLACEMENT_3D ( 'NONE', #29, #2, #92 ) ;
#167 = DIRECTION ( 'NONE',  ( 1.000000000000000000, 0.0000000000000000000, 0.0000000000000000000 ) ) ;
#168 = DIRECTION ( 'NONE',  ( -0.0000000000000000000, -0.0000000000000000000, -1.000000000000000000 ) ) ;
#169 = DIRECTION ( 'NONE',  ( 0.0000000000000000000, 0.0000000000000000000, 1.000000000000000000 ) ) ;
#170 = PERSON_AND_ORGANIZATION_ROLE ( 'classification_officer' ) ;
#171 = ADVANCED_FACE ( 'NONE', ( #148 ), #163, .T. ) ;
#172 = LOCAL_TIME ( 14, 10, 59.00000000000000000, #132 ) ;
#173 = DATE_AND_TIME ( #105, #172 ) ;
#174 = PRODUCT_DEFINITION ( 'UNKNOWN', '', #14, #67 ) ;
#175 = CIRCLE ( 'NONE', #104, 12.69999999999999900 ) ;
ENDSEC;
END-ISO-10303-21;
