ISO-10303-21;
HEADER;
FILE_DESCRIPTION (( 'STEP AP203' ),
    '1' );
FILE_NAME ('Web Model 45310_36973.step',
    '2019-01-07T15:42:40',
    ( '' ),
    ( '' ),
    'SwSTEP 2.0',
    'SolidWorks 2016',
    '' );
FILE_SCHEMA (( 'CONFIG_CONTROL_DESIGN' ));
ENDSEC;

DATA;
#1 = ORGANIZATION ( 'UNSPECIFIED', 'UNSPECIFIED', '' ) ;
#2 = APPROVAL ( #109, 'UNSPECIFIED' ) ;
#3 = CARTESIAN_POINT ( 'NONE',  ( -7.500000000000000000, 0.0000000000000000000, -1.000000000000000000 ) ) ;
#4 = DIRECTION ( 'NONE',  ( 0.0000000000000000000, 0.0000000000000000000, 1.000000000000000000 ) ) ;
#5 = VECTOR ( 'NONE', #62, 1000.000000000000000 ) ;
#6 = DIRECTION ( 'NONE',  ( 1.000000000000000000, 0.0000000000000000000, -0.0000000000000000000 ) ) ;
#7 = SECURITY_CLASSIFICATION_LEVEL ( 'unclassified' ) ;
#8 = EDGE_CURVE ( 'NONE', #131, #16, #24, .T. ) ;
#9 = ORIENTED_EDGE ( 'NONE', *, *, #29, .F. ) ;
#10 = CARTESIAN_POINT ( 'NONE',  ( 7.500000000000000000, 9.184850993605147900E-016, 1.000000000000000000 ) ) ;
#11 = CC_DESIGN_APPROVAL ( #46, ( #115 ) ) ;
#12 = CC_DESIGN_PERSON_AND_ORGANIZATION_ASSIGNMENT ( #22, #73, ( #105 ) ) ;
#13 = LOCAL_TIME ( 10, 42, 40.00000000000000000, #27 ) ;
#14 = ORIENTED_EDGE ( 'NONE', *, *, #8, .T. ) ;
#15 = CC_DESIGN_APPROVAL ( #167, ( #105 ) ) ;
#16 = VERTEX_POINT ( 'NONE', #91 ) ;
#17 = DATE_TIME_ROLE ( 'creation_date' ) ;
#18 = COORDINATED_UNIVERSAL_TIME_OFFSET ( 5, 0, .BEHIND. ) ;
#19 = ORIENTED_EDGE ( 'NONE', *, *, #26, .F. ) ;
#20 = DIRECTION ( 'NONE',  ( 1.000000000000000000, 0.0000000000000000000, -0.0000000000000000000 ) ) ;
#21 = PERSON_AND_ORGANIZATION_ROLE ( 'design_owner' ) ;
#22 = PERSON_AND_ORGANIZATION ( #89, #1 ) ;
#23 = DIRECTION ( 'NONE',  ( 0.0000000000000000000, 0.0000000000000000000, 1.000000000000000000 ) ) ;
#24 = CIRCLE ( 'NONE', #98, 7.500000000000000000 ) ;
#25 = ORIENTED_EDGE ( 'NONE', *, *, #8, .F. ) ;
#26 = EDGE_CURVE ( 'NONE', #138, #16, #53, .T. ) ;
#27 = COORDINATED_UNIVERSAL_TIME_OFFSET ( 5, 0, .BEHIND. ) ;
#28 = ADVANCED_BREP_SHAPE_REPRESENTATION ( 'Web Model 45310_36973', ( #114, #82 ), #144 ) ;
#29 = EDGE_CURVE ( 'NONE', #138, #51, #43, .T. ) ;
#30 = APPROVAL_PERSON_ORGANIZATION ( #157, #46, #31 ) ;
#31 = APPROVAL_ROLE ( '' ) ;
#32 = CARTESIAN_POINT ( 'NONE',  ( 7.500000000000000000, 9.184850993605147900E-016, 1.000000000000000000 ) ) ;
#33 =( LENGTH_UNIT ( ) NAMED_UNIT ( * ) SI_UNIT ( .MILLI., .METRE. ) );
#34 = PERSON_AND_ORGANIZATION ( #89, #1 ) ;
#35 = APPLICATION_CONTEXT ( 'configuration controlled 3d designs of mechanical parts and assemblies' ) ;
#36 = EDGE_CURVE ( 'NONE', #51, #138, #68, .T. ) ;
#37 = CYLINDRICAL_SURFACE ( 'NONE', #78, 7.500000000000000000 ) ;
#38 = CARTESIAN_POINT ( 'NONE',  ( 0.0000000000000000000, 0.0000000000000000000, 1.000000000000000000 ) ) ;
#39 = CALENDAR_DATE ( 2019, 7, 1 ) ;
#40 = PRODUCT ( 'Web Model 45310_36973', 'Web Model 45310_36973', '', ( #149 ) ) ;
#41 = ORIENTED_EDGE ( 'NONE', *, *, #26, .T. ) ;
#42 = CC_DESIGN_PERSON_AND_ORGANIZATION_ASSIGNMENT ( #166, #60, ( #115 ) ) ;
#43 = CIRCLE ( 'NONE', #141, 7.500000000000000000 ) ;
#44 = EDGE_CURVE ( 'NONE', #16, #131, #134, .T. ) ;
#45 = DIRECTION ( 'NONE',  ( 1.000000000000000000, 0.0000000000000000000, 0.0000000000000000000 ) ) ;
#46 = APPROVAL ( #160, 'UNSPECIFIED' ) ;
#47 = LOCAL_TIME ( 10, 42, 40.00000000000000000, #104 ) ;
#48 = CARTESIAN_POINT ( 'NONE',  ( 0.0000000000000000000, 0.0000000000000000000, 1.000000000000000000 ) ) ;
#49 = APPLICATION_PROTOCOL_DEFINITION ( 'international standard', 'config_control_design', 1994, #35 ) ;
#50 = FACE_OUTER_BOUND ( 'NONE', #121, .T. ) ;
#51 = VERTEX_POINT ( 'NONE', #133 ) ;
#52 = APPROVAL_DATE_TIME ( #124, #2 ) ;
#53 = LINE ( 'NONE', #10, #93 ) ;
#54 = EDGE_LOOP ( 'NONE', ( #19, #159, #94, #14 ) ) ;
#55 = CYLINDRICAL_SURFACE ( 'NONE', #147, 7.500000000000000000 ) ;
#56 = ORIENTED_EDGE ( 'NONE', *, *, #44, .T. ) ;
#57 = CARTESIAN_POINT ( 'NONE',  ( 0.0000000000000000000, 0.0000000000000000000, 1.000000000000000000 ) ) ;
#58 = DIRECTION ( 'NONE',  ( 0.0000000000000000000, 0.0000000000000000000, 1.000000000000000000 ) ) ;
#59 = LOCAL_TIME ( 10, 42, 40.00000000000000000, #18 ) ;
#60 = PERSON_AND_ORGANIZATION_ROLE ( 'classification_officer' ) ;
#61 = DIRECTION ( 'NONE',  ( -1.000000000000000000, 0.0000000000000000000, 0.0000000000000000000 ) ) ;
#62 = DIRECTION ( 'NONE',  ( -0.0000000000000000000, -0.0000000000000000000, -1.000000000000000000 ) ) ;
#63 = CALENDAR_DATE ( 2019, 7, 1 ) ;
#64 = PRODUCT_DEFINITION_SHAPE ( 'NONE', 'NONE',  #92 ) ;
#65 = PERSON_AND_ORGANIZATION ( #89, #1 ) ;
#66 = CARTESIAN_POINT ( 'NONE',  ( 0.0000000000000000000, 0.0000000000000000000, -1.000000000000000000 ) ) ;
#67 = CALENDAR_DATE ( 2019, 7, 1 ) ;
#68 = CIRCLE ( 'NONE', #69, 7.500000000000000000 ) ;
#69 = AXIS2_PLACEMENT_3D ( 'NONE', #129, #4, #45 ) ;
#70 = DATE_AND_TIME ( #39, #108 ) ;
#71 = CC_DESIGN_DATE_AND_TIME_ASSIGNMENT ( #70, #17, ( #92 ) ) ;
#72 = APPROVAL_ROLE ( '' ) ;
#73 = PERSON_AND_ORGANIZATION_ROLE ( 'design_supplier' ) ;
#74 = PERSON_AND_ORGANIZATION_ROLE ( 'creator' ) ;
#75 = FACE_OUTER_BOUND ( 'NONE', #145, .T. ) ;
#76 = ORIENTED_EDGE ( 'NONE', *, *, #102, .F. ) ;
#77 = DIRECTION ( 'NONE',  ( 1.000000000000000000, 0.0000000000000000000, 0.0000000000000000000 ) ) ;
#78 = AXIS2_PLACEMENT_3D ( 'NONE', #48, #128, #61 ) ;
#79 = PERSON_AND_ORGANIZATION ( #89, #1 ) ;
#80 = PRODUCT_RELATED_PRODUCT_CATEGORY ( 'detail', '', ( #40 ) ) ;
#81 = SHAPE_DEFINITION_REPRESENTATION ( #64, #28 ) ;
#82 = AXIS2_PLACEMENT_3D ( 'NONE', #96, #113, #77 ) ;
#83 = DIRECTION ( 'NONE',  ( 1.000000000000000000, 0.0000000000000000000, 0.0000000000000000000 ) ) ;
#84 = CARTESIAN_POINT ( 'NONE',  ( 0.0000000000000000000, 0.0000000000000000000, -1.000000000000000000 ) ) ;
#85 = DATE_AND_TIME ( #123, #136 ) ;
#86 = ORIENTED_EDGE ( 'NONE', *, *, #44, .F. ) ;
#87 = APPLICATION_PROTOCOL_DEFINITION ( 'international standard', 'config_control_design', 1994, #143 ) ;
#88 = APPROVAL_ROLE ( '' ) ;
#89 = PERSON ( 'UNSPECIFIED', 'UNSPECIFIED', 'UNSPECIFIED', ('UNSPECIFIED'), ('UNSPECIFIED'), ('UNSPECIFIED') ) ;
#90 = CC_DESIGN_DATE_AND_TIME_ASSIGNMENT ( #161, #164, ( #115 ) ) ;
#91 = CARTESIAN_POINT ( 'NONE',  ( 7.500000000000000000, 9.184850993605147900E-016, -1.000000000000000000 ) ) ;
#92 = PRODUCT_DEFINITION ( 'UNKNOWN', '', #105, #150 ) ;
#93 = VECTOR ( 'NONE', #154, 1000.000000000000000 ) ;
#94 = ORIENTED_EDGE ( 'NONE', *, *, #102, .T. ) ;
#95 = FACE_OUTER_BOUND ( 'NONE', #54, .T. ) ;
#96 = CARTESIAN_POINT ( 'NONE',  ( 0.0000000000000000000, 0.0000000000000000000, 0.0000000000000000000 ) ) ;
#97 = PLANE ( 'NONE',  #122 ) ;
#98 = AXIS2_PLACEMENT_3D ( 'NONE', #66, #168, #116 ) ;
#99 = APPROVAL_STATUS ( 'not_yet_approved' ) ;
#100 = PERSON_AND_ORGANIZATION ( #89, #1 ) ;
#101 = DIRECTION ( 'NONE',  ( -1.000000000000000000, 0.0000000000000000000, 0.0000000000000000000 ) ) ;
#102 = EDGE_CURVE ( 'NONE', #51, #131, #158, .T. ) ;
#103 = DIRECTION ( 'NONE',  ( 1.000000000000000000, 0.0000000000000000000, 0.0000000000000000000 ) ) ;
#104 = COORDINATED_UNIVERSAL_TIME_OFFSET ( 5, 0, .BEHIND. ) ;
#105 = PRODUCT_DEFINITION_FORMATION_WITH_SPECIFIED_SOURCE ( 'ANY', '', #40, .NOT_KNOWN. ) ;
#106 = CARTESIAN_POINT ( 'NONE',  ( 0.0000000000000000000, 0.0000000000000000000, 1.000000000000000000 ) ) ;
#107 = COORDINATED_UNIVERSAL_TIME_OFFSET ( 5, 0, .BEHIND. ) ;
#108 = LOCAL_TIME ( 10, 42, 40.00000000000000000, #107 ) ;
#109 = APPROVAL_STATUS ( 'not_yet_approved' ) ;
#110 = CC_DESIGN_SECURITY_CLASSIFICATION ( #115, ( #105 ) ) ;
#111 =( NAMED_UNIT ( * ) PLANE_ANGLE_UNIT ( ) SI_UNIT ( $, .RADIAN. ) );
#112 = CARTESIAN_POINT ( 'NONE',  ( 0.0000000000000000000, 0.0000000000000000000, -1.000000000000000000 ) ) ;
#113 = DIRECTION ( 'NONE',  ( 0.0000000000000000000, 0.0000000000000000000, 1.000000000000000000 ) ) ;
#114 = MANIFOLD_SOLID_BREP ( 'Boss-Extrude1', #135 ) ;
#115 = SECURITY_CLASSIFICATION ( '', '', #7 ) ;
#116 = DIRECTION ( 'NONE',  ( 1.000000000000000000, 0.0000000000000000000, 0.0000000000000000000 ) ) ;
#117 = APPROVAL_DATE_TIME ( #85, #46 ) ;
#118 = ADVANCED_FACE ( 'NONE', ( #126 ), #55, .T. ) ;
#119 = CC_DESIGN_PERSON_AND_ORGANIZATION_ASSIGNMENT ( #174, #74, ( #105 ) ) ;
#120 = ADVANCED_FACE ( 'NONE', ( #75 ), #97, .F. ) ;
#121 = EDGE_LOOP ( 'NONE', ( #156, #151 ) ) ;
#122 = AXIS2_PLACEMENT_3D ( 'NONE', #84, #139, #6 ) ;
#123 = CALENDAR_DATE ( 2019, 7, 1 ) ;
#124 = DATE_AND_TIME ( #67, #59 ) ;
#125 = EDGE_LOOP ( 'NONE', ( #9, #41, #56, #76 ) ) ;
#126 = FACE_OUTER_BOUND ( 'NONE', #125, .T. ) ;
#127 = DIRECTION ( 'NONE',  ( -0.0000000000000000000, -0.0000000000000000000, -1.000000000000000000 ) ) ;
#128 = DIRECTION ( 'NONE',  ( -0.0000000000000000000, -0.0000000000000000000, -1.000000000000000000 ) ) ;
#129 = CARTESIAN_POINT ( 'NONE',  ( 0.0000000000000000000, 0.0000000000000000000, 1.000000000000000000 ) ) ;
#130 = CC_DESIGN_APPROVAL ( #2, ( #92 ) ) ;
#131 = VERTEX_POINT ( 'NONE', #3 ) ;
#132 = AXIS2_PLACEMENT_3D ( 'NONE', #57, #58, #20 ) ;
#133 = CARTESIAN_POINT ( 'NONE',  ( -7.500000000000000000, 0.0000000000000000000, 1.000000000000000000 ) ) ;
#134 = CIRCLE ( 'NONE', #152, 7.500000000000000000 ) ;
#135 = CLOSED_SHELL ( 'NONE', ( #118, #171, #173, #120 ) ) ;
#136 = LOCAL_TIME ( 10, 42, 40.00000000000000000, #169 ) ;
#137 = APPROVAL_DATE_TIME ( #172, #167 ) ;
#138 = VERTEX_POINT ( 'NONE', #32 ) ;
#139 = DIRECTION ( 'NONE',  ( 0.0000000000000000000, 0.0000000000000000000, 1.000000000000000000 ) ) ;
#140 = APPROVAL_PERSON_ORGANIZATION ( #34, #167, #72 ) ;
#141 = AXIS2_PLACEMENT_3D ( 'NONE', #106, #23, #103 ) ;
#142 = PLANE ( 'NONE',  #132 ) ;
#143 = APPLICATION_CONTEXT ( 'configuration controlled 3d designs of mechanical parts and assemblies' ) ;
#144 =( GEOMETRIC_REPRESENTATION_CONTEXT ( 3 ) GLOBAL_UNCERTAINTY_ASSIGNED_CONTEXT ( ( #146 ) ) GLOBAL_UNIT_ASSIGNED_CONTEXT ( ( #33, #111, #148 ) ) REPRESENTATION_CONTEXT ( 'NONE', 'WORKASPACE' ) );
#145 = EDGE_LOOP ( 'NONE', ( #25, #86 ) ) ;
#146 = UNCERTAINTY_MEASURE_WITH_UNIT (LENGTH_MEASURE( 1.000000000000000100E-005 ), #33, 'distance_accuracy_value', 'NONE');
#147 = AXIS2_PLACEMENT_3D ( 'NONE', #38, #127, #101 ) ;
#148 =( NAMED_UNIT ( * ) SI_UNIT ( $, .STERADIAN. ) SOLID_ANGLE_UNIT ( ) );
#149 = MECHANICAL_CONTEXT ( 'NONE', #35, 'mechanical' ) ;
#150 = DESIGN_CONTEXT ( 'detailed design', #143, 'design' ) ;
#151 = ORIENTED_EDGE ( 'NONE', *, *, #29, .T. ) ;
#152 = AXIS2_PLACEMENT_3D ( 'NONE', #112, #165, #83 ) ;
#153 = CALENDAR_DATE ( 2019, 7, 1 ) ;
#154 = DIRECTION ( 'NONE',  ( -0.0000000000000000000, -0.0000000000000000000, -1.000000000000000000 ) ) ;
#155 = APPROVAL_PERSON_ORGANIZATION ( #79, #2, #88 ) ;
#156 = ORIENTED_EDGE ( 'NONE', *, *, #36, .T. ) ;
#157 = PERSON_AND_ORGANIZATION ( #89, #1 ) ;
#158 = LINE ( 'NONE', #170, #5 ) ;
#159 = ORIENTED_EDGE ( 'NONE', *, *, #36, .F. ) ;
#160 = APPROVAL_STATUS ( 'not_yet_approved' ) ;
#161 = DATE_AND_TIME ( #63, #47 ) ;
#162 = PERSON_AND_ORGANIZATION_ROLE ( 'creator' ) ;
#163 = CC_DESIGN_PERSON_AND_ORGANIZATION_ASSIGNMENT ( #100, #21, ( #40 ) ) ;
#164 = DATE_TIME_ROLE ( 'classification_date' ) ;
#165 = DIRECTION ( 'NONE',  ( 0.0000000000000000000, 0.0000000000000000000, 1.000000000000000000 ) ) ;
#166 = PERSON_AND_ORGANIZATION ( #89, #1 ) ;
#167 = APPROVAL ( #99, 'UNSPECIFIED' ) ;
#168 = DIRECTION ( 'NONE',  ( 0.0000000000000000000, 0.0000000000000000000, 1.000000000000000000 ) ) ;
#169 = COORDINATED_UNIVERSAL_TIME_OFFSET ( 5, 0, .BEHIND. ) ;
#170 = CARTESIAN_POINT ( 'NONE',  ( -7.500000000000000000, 0.0000000000000000000, 1.000000000000000000 ) ) ;
#171 = ADVANCED_FACE ( 'NONE', ( #95 ), #37, .T. ) ;
#172 = DATE_AND_TIME ( #153, #13 ) ;
#173 = ADVANCED_FACE ( 'NONE', ( #50 ), #142, .T. ) ;
#174 = PERSON_AND_ORGANIZATION ( #89, #1 ) ;
#175 = CC_DESIGN_PERSON_AND_ORGANIZATION_ASSIGNMENT ( #65, #162, ( #92 ) ) ;
ENDSEC;
END-ISO-10303-21;
