ISO-10303-21;
HEADER;
FILE_DESCRIPTION (( 'STEP AP203' ),
    '1' );
FILE_NAME ('Web Model 46458_47604.step',
    '2018-03-15T18:32:18',
    ( '' ),
    ( '' ),
    'SwSTEP 2.0',
    'SolidWorks 2016',
    '' );
FILE_SCHEMA (( 'CONFIG_CONTROL_DESIGN' ));
ENDSEC;

DATA;
#1 = CARTESIAN_POINT ( 'NONE',  ( 0.7500000000000000000, 0.0000000000000000000, 0.0000000000000000000 ) ) ;
#2 = DIRECTION ( 'NONE',  ( -1.000000000000000000, -0.0000000000000000000, -0.0000000000000000000 ) ) ;
#3 = PRODUCT ( 'Web Model 46458_47604', 'Web Model 46458_47604', '', ( #121 ) ) ;
#4 = CARTESIAN_POINT ( 'NONE',  ( 0.7500000000000000000, 0.0000000000000000000, 0.0000000000000000000 ) ) ;
#5 = ORIENTED_EDGE ( 'NONE', *, *, #132, .T. ) ;
#6 = CARTESIAN_POINT ( 'NONE',  ( -0.7500000000000000000, 1.555301434917138400E-015, -12.69999999999999900 ) ) ;
#7 = CC_DESIGN_PERSON_AND_ORGANIZATION_ASSIGNMENT ( #13, #75, ( #61 ) ) ;
#8 = DIRECTION ( 'NONE',  ( 0.0000000000000000000, 0.0000000000000000000, 1.000000000000000000 ) ) ;
#9 = APPLICATION_PROTOCOL_DEFINITION ( 'international standard', 'config_control_design', 1994, #163 ) ;
#10 = CC_DESIGN_PERSON_AND_ORGANIZATION_ASSIGNMENT ( #66, #85, ( #3 ) ) ;
#11 = CARTESIAN_POINT ( 'NONE',  ( 0.0000000000000000000, 0.0000000000000000000, 0.0000000000000000000 ) ) ;
#12 = CALENDAR_DATE ( 2018, 15, 3 ) ;
#13 = PERSON_AND_ORGANIZATION ( #20, #97 ) ;
#14 = CARTESIAN_POINT ( 'NONE',  ( 0.7500000000000000000, 0.0000000000000000000, 0.0000000000000000000 ) ) ;
#15 = SECURITY_CLASSIFICATION ( '', '', #28 ) ;
#16 = COORDINATED_UNIVERSAL_TIME_OFFSET ( 5, 0, .BEHIND. ) ;
#17 = ORIENTED_EDGE ( 'NONE', *, *, #130, .T. ) ;
#18 = COORDINATED_UNIVERSAL_TIME_OFFSET ( 5, 0, .BEHIND. ) ;
#19 = DIRECTION ( 'NONE',  ( 0.0000000000000000000, 0.0000000000000000000, 1.000000000000000000 ) ) ;
#20 = PERSON ( 'UNSPECIFIED', 'UNSPECIFIED', 'UNSPECIFIED', ('UNSPECIFIED'), ('UNSPECIFIED'), ('UNSPECIFIED') ) ;
#21 = CIRCLE ( 'NONE', #22, 12.69999999999999900 ) ;
#22 = AXIS2_PLACEMENT_3D ( 'NONE', #127, #55, #79 ) ;
#23 = APPLICATION_CONTEXT ( 'configuration controlled 3d designs of mechanical parts and assemblies' ) ;
#24 = APPROVAL_STATUS ( 'not_yet_approved' ) ;
#25 = CC_DESIGN_PERSON_AND_ORGANIZATION_ASSIGNMENT ( #59, #39, ( #15 ) ) ;
#26 = ADVANCED_FACE ( 'NONE', ( #60 ), #154, .F. ) ;
#27 = MANIFOLD_SOLID_BREP ( 'Boss-Extrude1', #102 ) ;
#28 = SECURITY_CLASSIFICATION_LEVEL ( 'unclassified' ) ;
#29 = VERTEX_POINT ( 'NONE', #143 ) ;
#30 = CARTESIAN_POINT ( 'NONE',  ( 0.7500000000000000000, 0.0000000000000000000, 0.0000000000000000000 ) ) ;
#31 = CC_DESIGN_PERSON_AND_ORGANIZATION_ASSIGNMENT ( #41, #138, ( #137 ) ) ;
#32 = PERSON_AND_ORGANIZATION ( #20, #97 ) ;
#33 = APPROVAL ( #36, 'UNSPECIFIED' ) ;
#34 = LOCAL_TIME ( 14, 32, 18.00000000000000000, #175 ) ;
#35 = DIRECTION ( 'NONE',  ( 0.0000000000000000000, 0.0000000000000000000, -1.000000000000000000 ) ) ;
#36 = APPROVAL_STATUS ( 'not_yet_approved' ) ;
#37 = APPROVAL_DATE_TIME ( #51, #101 ) ;
#38 = CC_DESIGN_DATE_AND_TIME_ASSIGNMENT ( #81, #167, ( #137 ) ) ;
#39 = PERSON_AND_ORGANIZATION_ROLE ( 'classification_officer' ) ;
#40 = EDGE_LOOP ( 'NONE', ( #172, #120, #17, #144 ) ) ;
#41 = PERSON_AND_ORGANIZATION ( #20, #97 ) ;
#42 = LINE ( 'NONE', #129, #119 ) ;
#43 = EDGE_CURVE ( 'NONE', #164, #107, #21, .T. ) ;
#44 = AXIS2_PLACEMENT_3D ( 'NONE', #30, #105, #156 ) ;
#45 = ORIENTED_EDGE ( 'NONE', *, *, #130, .F. ) ;
#46 = DIRECTION ( 'NONE',  ( 1.000000000000000000, 0.0000000000000000000, 0.0000000000000000000 ) ) ;
#47 = APPROVAL_ROLE ( '' ) ;
#48 = CALENDAR_DATE ( 2018, 15, 3 ) ;
#49 = ADVANCED_FACE ( 'NONE', ( #146 ), #100, .T. ) ;
#50 = EDGE_CURVE ( 'NONE', #29, #107, #42, .T. ) ;
#51 = DATE_AND_TIME ( #68, #151 ) ;
#52 = APPROVAL_DATE_TIME ( #103, #33 ) ;
#53 =( GEOMETRIC_REPRESENTATION_CONTEXT ( 3 ) GLOBAL_UNCERTAINTY_ASSIGNED_CONTEXT ( ( #70 ) ) GLOBAL_UNIT_ASSIGNED_CONTEXT ( ( #140, #149, #122 ) ) REPRESENTATION_CONTEXT ( 'NONE', 'WORKASPACE' ) );
#54 = AXIS2_PLACEMENT_3D ( 'NONE', #1, #2, #8 ) ;
#55 = DIRECTION ( 'NONE',  ( 1.000000000000000000, 0.0000000000000000000, 0.0000000000000000000 ) ) ;
#56 = DATE_AND_TIME ( #131, #34 ) ;
#57 = DIRECTION ( 'NONE',  ( 0.0000000000000000000, 0.0000000000000000000, 1.000000000000000000 ) ) ;
#58 = CC_DESIGN_SECURITY_CLASSIFICATION ( #15, ( #61 ) ) ;
#59 = PERSON_AND_ORGANIZATION ( #20, #97 ) ;
#60 = FACE_OUTER_BOUND ( 'NONE', #86, .T. ) ;
#61 = PRODUCT_DEFINITION_FORMATION_WITH_SPECIFIED_SOURCE ( 'ANY', '', #3, .NOT_KNOWN. ) ;
#62 = EDGE_CURVE ( 'NONE', #90, #29, #99, .T. ) ;
#63 = PERSON_AND_ORGANIZATION ( #20, #97 ) ;
#64 = EDGE_LOOP ( 'NONE', ( #87, #148, #72, #116 ) ) ;
#65 = CARTESIAN_POINT ( 'NONE',  ( -0.7500000000000000000, 0.0000000000000000000, 0.0000000000000000000 ) ) ;
#66 = PERSON_AND_ORGANIZATION ( #20, #97 ) ;
#67 = DIRECTION ( 'NONE',  ( 1.000000000000000000, 0.0000000000000000000, 0.0000000000000000000 ) ) ;
#68 = CALENDAR_DATE ( 2018, 15, 3 ) ;
#69 = FACE_OUTER_BOUND ( 'NONE', #40, .T. ) ;
#70 = UNCERTAINTY_MEASURE_WITH_UNIT (LENGTH_MEASURE( 1.000000000000000100E-005 ), #140, 'distance_accuracy_value', 'NONE');
#71 = CARTESIAN_POINT ( 'NONE',  ( -0.7500000000000000000, 0.0000000000000000000, 0.0000000000000000000 ) ) ;
#72 = ORIENTED_EDGE ( 'NONE', *, *, #80, .T. ) ;
#73 = APPLICATION_PROTOCOL_DEFINITION ( 'international standard', 'config_control_design', 1994, #23 ) ;
#74 = COORDINATED_UNIVERSAL_TIME_OFFSET ( 5, 0, .BEHIND. ) ;
#75 = PERSON_AND_ORGANIZATION_ROLE ( 'design_supplier' ) ;
#76 = DIRECTION ( 'NONE',  ( 0.0000000000000000000, 0.0000000000000000000, -1.000000000000000000 ) ) ;
#77 = DIRECTION ( 'NONE',  ( -1.000000000000000000, -0.0000000000000000000, -0.0000000000000000000 ) ) ;
#78 = AXIS2_PLACEMENT_3D ( 'NONE', #133, #94, #84 ) ;
#79 = DIRECTION ( 'NONE',  ( 0.0000000000000000000, 0.0000000000000000000, -1.000000000000000000 ) ) ;
#80 = EDGE_CURVE ( 'NONE', #90, #164, #88, .T. ) ;
#81 = DATE_AND_TIME ( #48, #160 ) ;
#82 = CARTESIAN_POINT ( 'NONE',  ( -0.7500000000000000000, 0.0000000000000000000, 12.69999999999999900 ) ) ;
#83 = PRODUCT_DEFINITION_SHAPE ( 'NONE', 'NONE',  #137 ) ;
#84 = DIRECTION ( 'NONE',  ( 0.0000000000000000000, 0.0000000000000000000, -1.000000000000000000 ) ) ;
#85 = PERSON_AND_ORGANIZATION_ROLE ( 'design_owner' ) ;
#86 = EDGE_LOOP ( 'NONE', ( #161, #45 ) ) ;
#87 = ORIENTED_EDGE ( 'NONE', *, *, #50, .F. ) ;
#88 = LINE ( 'NONE', #114, #108 ) ;
#89 = DIRECTION ( 'NONE',  ( 1.000000000000000000, 0.0000000000000000000, 0.0000000000000000000 ) ) ;
#90 = VERTEX_POINT ( 'NONE', #170 ) ;
#91 = AXIS2_PLACEMENT_3D ( 'NONE', #65, #89, #76 ) ;
#92 = CALENDAR_DATE ( 2018, 15, 3 ) ;
#93 = CC_DESIGN_APPROVAL ( #173, ( #15 ) ) ;
#94 = DIRECTION ( 'NONE',  ( 1.000000000000000000, 0.0000000000000000000, 0.0000000000000000000 ) ) ;
#95 = DATE_AND_TIME ( #92, #147 ) ;
#96 = APPROVAL_ROLE ( '' ) ;
#97 = ORGANIZATION ( 'UNSPECIFIED', 'UNSPECIFIED', '' ) ;
#98 = APPROVAL_PERSON_ORGANIZATION ( #63, #101, #96 ) ;
#99 = CIRCLE ( 'NONE', #157, 12.69999999999999900 ) ;
#100 = PLANE ( 'NONE',  #44 ) ;
#101 = APPROVAL ( #24, 'UNSPECIFIED' ) ;
#102 = CLOSED_SHELL ( 'NONE', ( #165, #126, #49, #26 ) ) ;
#103 = DATE_AND_TIME ( #12, #169 ) ;
#104 = APPROVAL_PERSON_ORGANIZATION ( #32, #33, #47 ) ;
#105 = DIRECTION ( 'NONE',  ( 1.000000000000000000, 0.0000000000000000000, 0.0000000000000000000 ) ) ;
#106 = CIRCLE ( 'NONE', #124, 12.69999999999999900 ) ;
#107 = VERTEX_POINT ( 'NONE', #6 ) ;
#108 = VECTOR ( 'NONE', #77, 1000.000000000000000 ) ;
#109 = APPROVAL_ROLE ( '' ) ;
#110 = PERSON_AND_ORGANIZATION_ROLE ( 'creator' ) ;
#111 = DATE_TIME_ROLE ( 'classification_date' ) ;
#112 = APPROVAL_STATUS ( 'not_yet_approved' ) ;
#113 = PERSON_AND_ORGANIZATION ( #20, #97 ) ;
#114 = CARTESIAN_POINT ( 'NONE',  ( 0.7500000000000000000, 0.0000000000000000000, 12.69999999999999900 ) ) ;
#115 = COORDINATED_UNIVERSAL_TIME_OFFSET ( 5, 0, .BEHIND. ) ;
#116 = ORIENTED_EDGE ( 'NONE', *, *, #43, .T. ) ;
#117 = DIRECTION ( 'NONE',  ( -1.000000000000000000, -0.0000000000000000000, -0.0000000000000000000 ) ) ;
#118 = CC_DESIGN_APPROVAL ( #101, ( #61 ) ) ;
#119 = VECTOR ( 'NONE', #174, 1000.000000000000000 ) ;
#120 = ORIENTED_EDGE ( 'NONE', *, *, #50, .T. ) ;
#121 = MECHANICAL_CONTEXT ( 'NONE', #163, 'mechanical' ) ;
#122 =( NAMED_UNIT ( * ) SI_UNIT ( $, .STERADIAN. ) SOLID_ANGLE_UNIT ( ) );
#123 = PERSON_AND_ORGANIZATION ( #20, #97 ) ;
#124 = AXIS2_PLACEMENT_3D ( 'NONE', #71, #135, #35 ) ;
#125 = APPROVAL_DATE_TIME ( #56, #173 ) ;
#126 = ADVANCED_FACE ( 'NONE', ( #158 ), #128, .T. ) ;
#127 = CARTESIAN_POINT ( 'NONE',  ( -0.7500000000000000000, 0.0000000000000000000, 0.0000000000000000000 ) ) ;
#128 = CYLINDRICAL_SURFACE ( 'NONE', #153, 12.69999999999999900 ) ;
#129 = CARTESIAN_POINT ( 'NONE',  ( 0.7500000000000000000, 1.555301434917138400E-015, -12.69999999999999900 ) ) ;
#130 = EDGE_CURVE ( 'NONE', #107, #164, #106, .T. ) ;
#131 = CALENDAR_DATE ( 2018, 15, 3 ) ;
#132 = EDGE_CURVE ( 'NONE', #29, #90, #139, .T. ) ;
#133 = CARTESIAN_POINT ( 'NONE',  ( 0.7500000000000000000, 0.0000000000000000000, 0.0000000000000000000 ) ) ;
#134 = SHAPE_DEFINITION_REPRESENTATION ( #83, #162 ) ;
#135 = DIRECTION ( 'NONE',  ( 1.000000000000000000, 0.0000000000000000000, 0.0000000000000000000 ) ) ;
#136 = CYLINDRICAL_SURFACE ( 'NONE', #54, 12.69999999999999900 ) ;
#137 = PRODUCT_DEFINITION ( 'UNKNOWN', '', #61, #171 ) ;
#138 = PERSON_AND_ORGANIZATION_ROLE ( 'creator' ) ;
#139 = CIRCLE ( 'NONE', #78, 12.69999999999999900 ) ;
#140 =( LENGTH_UNIT ( ) NAMED_UNIT ( * ) SI_UNIT ( .MILLI., .METRE. ) );
#141 = ORIENTED_EDGE ( 'NONE', *, *, #62, .T. ) ;
#142 = CC_DESIGN_PERSON_AND_ORGANIZATION_ASSIGNMENT ( #123, #110, ( #61 ) ) ;
#143 = CARTESIAN_POINT ( 'NONE',  ( 0.7500000000000000000, 1.555301434917138400E-015, -12.69999999999999900 ) ) ;
#144 = ORIENTED_EDGE ( 'NONE', *, *, #80, .F. ) ;
#145 = CC_DESIGN_DATE_AND_TIME_ASSIGNMENT ( #95, #111, ( #15 ) ) ;
#146 = FACE_OUTER_BOUND ( 'NONE', #159, .T. ) ;
#147 = LOCAL_TIME ( 14, 32, 18.00000000000000000, #18 ) ;
#148 = ORIENTED_EDGE ( 'NONE', *, *, #62, .F. ) ;
#149 =( NAMED_UNIT ( * ) PLANE_ANGLE_UNIT ( ) SI_UNIT ( $, .RADIAN. ) );
#150 = AXIS2_PLACEMENT_3D ( 'NONE', #11, #57, #46 ) ;
#151 = LOCAL_TIME ( 14, 32, 18.00000000000000000, #16 ) ;
#152 = PRODUCT_RELATED_PRODUCT_CATEGORY ( 'detail', '', ( #3 ) ) ;
#153 = AXIS2_PLACEMENT_3D ( 'NONE', #4, #117, #19 ) ;
#154 = PLANE ( 'NONE',  #91 ) ;
#155 = DIRECTION ( 'NONE',  ( 0.0000000000000000000, 0.0000000000000000000, -1.000000000000000000 ) ) ;
#156 = DIRECTION ( 'NONE',  ( 0.0000000000000000000, 0.0000000000000000000, -1.000000000000000000 ) ) ;
#157 = AXIS2_PLACEMENT_3D ( 'NONE', #14, #67, #155 ) ;
#158 = FACE_OUTER_BOUND ( 'NONE', #64, .T. ) ;
#159 = EDGE_LOOP ( 'NONE', ( #141, #5 ) ) ;
#160 = LOCAL_TIME ( 14, 32, 18.00000000000000000, #115 ) ;
#161 = ORIENTED_EDGE ( 'NONE', *, *, #43, .F. ) ;
#162 = ADVANCED_BREP_SHAPE_REPRESENTATION ( 'Web Model 46458_47604', ( #27, #150 ), #53 ) ;
#163 = APPLICATION_CONTEXT ( 'configuration controlled 3d designs of mechanical parts and assemblies' ) ;
#164 = VERTEX_POINT ( 'NONE', #82 ) ;
#165 = ADVANCED_FACE ( 'NONE', ( #69 ), #136, .T. ) ;
#166 = CC_DESIGN_APPROVAL ( #33, ( #137 ) ) ;
#167 = DATE_TIME_ROLE ( 'creation_date' ) ;
#168 = APPROVAL_PERSON_ORGANIZATION ( #113, #173, #109 ) ;
#169 = LOCAL_TIME ( 14, 32, 18.00000000000000000, #74 ) ;
#170 = CARTESIAN_POINT ( 'NONE',  ( 0.7500000000000000000, 0.0000000000000000000, 12.69999999999999900 ) ) ;
#171 = DESIGN_CONTEXT ( 'detailed design', #23, 'design' ) ;
#172 = ORIENTED_EDGE ( 'NONE', *, *, #132, .F. ) ;
#173 = APPROVAL ( #112, 'UNSPECIFIED' ) ;
#174 = DIRECTION ( 'NONE',  ( -1.000000000000000000, -0.0000000000000000000, -0.0000000000000000000 ) ) ;
#175 = COORDINATED_UNIVERSAL_TIME_OFFSET ( 5, 0, .BEHIND. ) ;
ENDSEC;
END-ISO-10303-21;
