ISO-10303-21;
HEADER;
FILE_DESCRIPTION (( 'STEP AP203' ),
    '1' );
FILE_NAME ('Web Model 47681_14801.step',
    '2020-10-07T17:21:19',
    ( '' ),
    ( '' ),
    'SwSTEP 2.0',
    'SolidWorks 2018',
    '' );
FILE_SCHEMA (( 'CONFIG_CONTROL_DESIGN' ));
ENDSEC;

DATA;
#1 = EDGE_CURVE ( 'NONE', #16, #156, #110, .T. ) ;
#2 = DIRECTION ( 'NONE',  ( -0.0000000000000000000, -0.0000000000000000000, -1.000000000000000000 ) ) ;
#3 = CARTESIAN_POINT ( 'NONE',  ( -5.000000000000000888, 0.0000000000000000000, -0.7500000000000000000 ) ) ;
#4 = CC_DESIGN_PERSON_AND_ORGANIZATION_ASSIGNMENT ( #94, #117, ( #34 ) ) ;
#5 = DATE_TIME_ROLE ( 'creation_date' ) ;
#6 = APPROVAL_DATE_TIME ( #28, #95 ) ;
#7 = PERSON_AND_ORGANIZATION_ROLE ( 'creator' ) ;
#8 = PERSON_AND_ORGANIZATION_ROLE ( 'creator' ) ;
#9 = FACE_OUTER_BOUND ( 'NONE', #136, .T. ) ;
#10 = PRODUCT ( 'Web Model 47681_14801', 'Web Model 47681_14801', '', ( #103 ) ) ;
#11 = CC_DESIGN_APPROVAL ( #72, ( #34 ) ) ;
#12 =( GEOMETRIC_REPRESENTATION_CONTEXT ( 3 ) GLOBAL_UNCERTAINTY_ASSIGNED_CONTEXT ( ( #53 ) ) GLOBAL_UNIT_ASSIGNED_CONTEXT ( ( #48, #21, #172 ) ) REPRESENTATION_CONTEXT ( 'NONE', 'WORKASPACE' ) );
#13 = CALENDAR_DATE ( 2020, 7, 10 ) ;
#14 = APPROVAL_DATE_TIME ( #30, #72 ) ;
#15 = CC_DESIGN_SECURITY_CLASSIFICATION ( #34, ( #98 ) ) ;
#16 = VERTEX_POINT ( 'NONE', #102 ) ;
#17 = EDGE_CURVE ( 'NONE', #16, #77, #26, .T. ) ;
#18 = COORDINATED_UNIVERSAL_TIME_OFFSET ( 5, 0, .BEHIND. ) ;
#19 = CYLINDRICAL_SURFACE ( 'NONE', #61, 5.000000000000000888 ) ;
#20 = PRODUCT_DEFINITION_SHAPE ( 'NONE', 'NONE',  #66 ) ;
#21 =( NAMED_UNIT ( * ) PLANE_ANGLE_UNIT ( ) SI_UNIT ( $, .RADIAN. ) );
#22 = APPLICATION_PROTOCOL_DEFINITION ( 'international standard', 'config_control_design', 1994, #143 ) ;
#23 = ORGANIZATION ( 'UNSPECIFIED', 'UNSPECIFIED', '' ) ;
#24 = APPROVAL_STATUS ( 'not_yet_approved' ) ;
#25 = APPLICATION_PROTOCOL_DEFINITION ( 'international standard', 'config_control_design', 1994, #145 ) ;
#26 = LINE ( 'NONE', #99, #140 ) ;
#27 = ADVANCED_FACE ( 'NONE', ( #166 ), #125, .F. ) ;
#28 = DATE_AND_TIME ( #109, #105 ) ;
#29 = EDGE_CURVE ( 'NONE', #156, #16, #70, .T. ) ;
#30 = DATE_AND_TIME ( #67, #32 ) ;
#31 = AXIS2_PLACEMENT_3D ( 'NONE', #87, #89, #55 ) ;
#32 = LOCAL_TIME ( 13, 21, 19.00000000000000000, #147 ) ;
#33 = DIRECTION ( 'NONE',  ( 1.000000000000000000, 0.0000000000000000000, -0.0000000000000000000 ) ) ;
#34 = SECURITY_CLASSIFICATION ( '', '', #116 ) ;
#35 = CARTESIAN_POINT ( 'NONE',  ( 0.0000000000000000000, 0.0000000000000000000, 0.7500000000000000000 ) ) ;
#36 = CARTESIAN_POINT ( 'NONE',  ( 0.0000000000000000000, 0.0000000000000000000, 0.0000000000000000000 ) ) ;
#37 = PERSON_AND_ORGANIZATION ( #164, #23 ) ;
#38 = ORIENTED_EDGE ( 'NONE', *, *, #1, .T. ) ;
#39 = LOCAL_TIME ( 13, 21, 19.00000000000000000, #18 ) ;
#40 = PERSON_AND_ORGANIZATION ( #164, #23 ) ;
#41 = LINE ( 'NONE', #131, #51 ) ;
#42 = DATE_AND_TIME ( #170, #76 ) ;
#43 = AXIS2_PLACEMENT_3D ( 'NONE', #114, #153, #165 ) ;
#44 = PLANE ( 'NONE',  #175 ) ;
#45 = ORIENTED_EDGE ( 'NONE', *, *, #1, .F. ) ;
#46 = CARTESIAN_POINT ( 'NONE',  ( 5.000000000000000888, 6.123233995736767268E-16, -0.7500000000000000000 ) ) ;
#47 = CC_DESIGN_PERSON_AND_ORGANIZATION_ASSIGNMENT ( #37, #106, ( #10 ) ) ;
#48 =( LENGTH_UNIT ( ) NAMED_UNIT ( * ) SI_UNIT ( .MILLI., .METRE. ) );
#49 = PERSON_AND_ORGANIZATION ( #164, #23 ) ;
#50 = AXIS2_PLACEMENT_3D ( 'NONE', #137, #151, #73 ) ;
#51 = VECTOR ( 'NONE', #62, 1000.000000000000000 ) ;
#52 = CC_DESIGN_DATE_AND_TIME_ASSIGNMENT ( #42, #144, ( #34 ) ) ;
#53 = UNCERTAINTY_MEASURE_WITH_UNIT (LENGTH_MEASURE( 1.000000000000000082E-05 ), #48, 'distance_accuracy_value', 'NONE');
#54 = COORDINATED_UNIVERSAL_TIME_OFFSET ( 5, 0, .BEHIND. ) ;
#55 = DIRECTION ( 'NONE',  ( 1.000000000000000000, 0.0000000000000000000, 0.0000000000000000000 ) ) ;
#56 = ORIENTED_EDGE ( 'NONE', *, *, #29, .F. ) ;
#57 = DIRECTION ( 'NONE',  ( -0.0000000000000000000, -0.0000000000000000000, -1.000000000000000000 ) ) ;
#58 = CC_DESIGN_DATE_AND_TIME_ASSIGNMENT ( #150, #5, ( #66 ) ) ;
#59 = CARTESIAN_POINT ( 'NONE',  ( 0.0000000000000000000, 0.0000000000000000000, 0.7500000000000000000 ) ) ;
#60 = EDGE_LOOP ( 'NONE', ( #45, #160, #146, #108 ) ) ;
#61 = AXIS2_PLACEMENT_3D ( 'NONE', #59, #169, #159 ) ;
#62 = DIRECTION ( 'NONE',  ( -0.0000000000000000000, -0.0000000000000000000, -1.000000000000000000 ) ) ;
#63 = ADVANCED_BREP_SHAPE_REPRESENTATION ( 'Web Model 47681_14801', ( #111, #154 ), #12 ) ;
#64 = PERSON_AND_ORGANIZATION_ROLE ( 'design_supplier' ) ;
#65 = ORIENTED_EDGE ( 'NONE', *, *, #97, .F. ) ;
#66 = PRODUCT_DEFINITION ( 'UNKNOWN', '', #98, #120 ) ;
#67 = CALENDAR_DATE ( 2020, 7, 10 ) ;
#68 = PERSON_AND_ORGANIZATION ( #164, #23 ) ;
#69 = DATE_AND_TIME ( #107, #100 ) ;
#70 = CIRCLE ( 'NONE', #43, 5.000000000000000888 ) ;
#71 = PERSON_AND_ORGANIZATION ( #164, #23 ) ;
#72 = APPROVAL ( #79, 'UNSPECIFIED' ) ;
#73 = DIRECTION ( 'NONE',  ( 1.000000000000000000, 0.0000000000000000000, 0.0000000000000000000 ) ) ;
#74 = ORIENTED_EDGE ( 'NONE', *, *, #17, .F. ) ;
#75 = DIRECTION ( 'NONE',  ( -1.000000000000000000, 0.0000000000000000000, 0.0000000000000000000 ) ) ;
#76 = LOCAL_TIME ( 13, 21, 19.00000000000000000, #83 ) ;
#77 = VERTEX_POINT ( 'NONE', #46 ) ;
#78 = DIRECTION ( 'NONE',  ( 1.000000000000000000, 0.0000000000000000000, 0.0000000000000000000 ) ) ;
#79 = APPROVAL_STATUS ( 'not_yet_approved' ) ;
#80 = CARTESIAN_POINT ( 'NONE',  ( 0.0000000000000000000, 0.0000000000000000000, -0.7500000000000000000 ) ) ;
#81 = APPROVAL_ROLE ( '' ) ;
#82 = EDGE_LOOP ( 'NONE', ( #173, #65 ) ) ;
#83 = COORDINATED_UNIVERSAL_TIME_OFFSET ( 5, 0, .BEHIND. ) ;
#84 = APPROVAL_PERSON_ORGANIZATION ( #113, #95, #104 ) ;
#85 = PRODUCT_RELATED_PRODUCT_CATEGORY ( 'detail', '', ( #10 ) ) ;
#86 = ORIENTED_EDGE ( 'NONE', *, *, #88, .T. ) ;
#87 = CARTESIAN_POINT ( 'NONE',  ( 0.0000000000000000000, 0.0000000000000000000, 0.7500000000000000000 ) ) ;
#88 = EDGE_CURVE ( 'NONE', #96, #77, #158, .T. ) ;
#89 = DIRECTION ( 'NONE',  ( 0.0000000000000000000, 0.0000000000000000000, 1.000000000000000000 ) ) ;
#90 = ORIENTED_EDGE ( 'NONE', *, *, #29, .T. ) ;
#91 = DIRECTION ( 'NONE',  ( 0.0000000000000000000, 0.0000000000000000000, 1.000000000000000000 ) ) ;
#92 = APPROVAL_DATE_TIME ( #69, #138 ) ;
#93 = ADVANCED_FACE ( 'NONE', ( #126 ), #152, .T. ) ;
#94 = PERSON_AND_ORGANIZATION ( #164, #23 ) ;
#95 = APPROVAL ( #171, 'UNSPECIFIED' ) ;
#96 = VERTEX_POINT ( 'NONE', #3 ) ;
#97 = EDGE_CURVE ( 'NONE', #77, #96, #161, .T. ) ;
#98 = PRODUCT_DEFINITION_FORMATION_WITH_SPECIFIED_SOURCE ( 'ANY', '', #10, .NOT_KNOWN. ) ;
#99 = CARTESIAN_POINT ( 'NONE',  ( 5.000000000000000888, 6.123233995736767268E-16, 0.7500000000000000000 ) ) ;
#100 = LOCAL_TIME ( 13, 21, 19.00000000000000000, #139 ) ;
#101 = CARTESIAN_POINT ( 'NONE',  ( 0.0000000000000000000, 0.0000000000000000000, -0.7500000000000000000 ) ) ;
#102 = CARTESIAN_POINT ( 'NONE',  ( 5.000000000000000888, 6.123233995736767268E-16, 0.7500000000000000000 ) ) ;
#103 = MECHANICAL_CONTEXT ( 'NONE', #145, 'mechanical' ) ;
#104 = APPROVAL_ROLE ( '' ) ;
#105 = LOCAL_TIME ( 13, 21, 19.00000000000000000, #54 ) ;
#106 = PERSON_AND_ORGANIZATION_ROLE ( 'design_owner' ) ;
#107 = CALENDAR_DATE ( 2020, 7, 10 ) ;
#108 = ORIENTED_EDGE ( 'NONE', *, *, #167, .F. ) ;
#109 = CALENDAR_DATE ( 2020, 7, 10 ) ;
#110 = CIRCLE ( 'NONE', #31, 5.000000000000000888 ) ;
#111 = MANIFOLD_SOLID_BREP ( 'Boss-Extrude1', #142 ) ;
#112 = DIRECTION ( 'NONE',  ( 0.0000000000000000000, 0.0000000000000000000, 1.000000000000000000 ) ) ;
#113 = PERSON_AND_ORGANIZATION ( #164, #23 ) ;
#114 = CARTESIAN_POINT ( 'NONE',  ( 0.0000000000000000000, 0.0000000000000000000, 0.7500000000000000000 ) ) ;
#115 = DIRECTION ( 'NONE',  ( 1.000000000000000000, 0.0000000000000000000, 0.0000000000000000000 ) ) ;
#116 = SECURITY_CLASSIFICATION_LEVEL ( 'unclassified' ) ;
#117 = PERSON_AND_ORGANIZATION_ROLE ( 'classification_officer' ) ;
#118 = ADVANCED_FACE ( 'NONE', ( #162 ), #44, .T. ) ;
#119 = EDGE_LOOP ( 'NONE', ( #90, #38 ) ) ;
#120 = DESIGN_CONTEXT ( 'detailed design', #143, 'design' ) ;
#121 = AXIS2_PLACEMENT_3D ( 'NONE', #80, #141, #78 ) ;
#122 = CC_DESIGN_APPROVAL ( #138, ( #66 ) ) ;
#123 = ORIENTED_EDGE ( 'NONE', *, *, #167, .T. ) ;
#124 = APPROVAL_PERSON_ORGANIZATION ( #40, #138, #130 ) ;
#125 = PLANE ( 'NONE',  #133 ) ;
#126 = FACE_OUTER_BOUND ( 'NONE', #60, .T. ) ;
#127 = CC_DESIGN_PERSON_AND_ORGANIZATION_ASSIGNMENT ( #49, #7, ( #66 ) ) ;
#128 = SHAPE_DEFINITION_REPRESENTATION ( #20, #63 ) ;
#129 = DIRECTION ( 'NONE',  ( 0.0000000000000000000, 0.0000000000000000000, 1.000000000000000000 ) ) ;
#130 = APPROVAL_ROLE ( '' ) ;
#131 = CARTESIAN_POINT ( 'NONE',  ( -5.000000000000000888, 0.0000000000000000000, 0.7500000000000000000 ) ) ;
#132 = DIRECTION ( 'NONE',  ( 1.000000000000000000, 0.0000000000000000000, -0.0000000000000000000 ) ) ;
#133 = AXIS2_PLACEMENT_3D ( 'NONE', #101, #112, #33 ) ;
#134 = ADVANCED_FACE ( 'NONE', ( #9 ), #19, .T. ) ;
#135 = CC_DESIGN_PERSON_AND_ORGANIZATION_ASSIGNMENT ( #148, #64, ( #98 ) ) ;
#136 = EDGE_LOOP ( 'NONE', ( #74, #56, #123, #86 ) ) ;
#137 = CARTESIAN_POINT ( 'NONE',  ( 0.0000000000000000000, 0.0000000000000000000, -0.7500000000000000000 ) ) ;
#138 = APPROVAL ( #24, 'UNSPECIFIED' ) ;
#139 = COORDINATED_UNIVERSAL_TIME_OFFSET ( 5, 0, .BEHIND. ) ;
#140 = VECTOR ( 'NONE', #57, 1000.000000000000000 ) ;
#141 = DIRECTION ( 'NONE',  ( 0.0000000000000000000, 0.0000000000000000000, 1.000000000000000000 ) ) ;
#142 = CLOSED_SHELL ( 'NONE', ( #93, #134, #118, #27 ) ) ;
#143 = APPLICATION_CONTEXT ( 'configuration controlled 3d designs of mechanical parts and assemblies' ) ;
#144 = DATE_TIME_ROLE ( 'classification_date' ) ;
#145 = APPLICATION_CONTEXT ( 'configuration controlled 3d designs of mechanical parts and assemblies' ) ;
#146 = ORIENTED_EDGE ( 'NONE', *, *, #97, .T. ) ;
#147 = COORDINATED_UNIVERSAL_TIME_OFFSET ( 5, 0, .BEHIND. ) ;
#148 = PERSON_AND_ORGANIZATION ( #164, #23 ) ;
#149 = AXIS2_PLACEMENT_3D ( 'NONE', #168, #2, #75 ) ;
#150 = DATE_AND_TIME ( #13, #39 ) ;
#151 = DIRECTION ( 'NONE',  ( 0.0000000000000000000, 0.0000000000000000000, 1.000000000000000000 ) ) ;
#152 = CYLINDRICAL_SURFACE ( 'NONE', #149, 5.000000000000000888 ) ;
#153 = DIRECTION ( 'NONE',  ( 0.0000000000000000000, 0.0000000000000000000, 1.000000000000000000 ) ) ;
#154 = AXIS2_PLACEMENT_3D ( 'NONE', #36, #129, #115 ) ;
#155 = APPROVAL_PERSON_ORGANIZATION ( #71, #72, #81 ) ;
#156 = VERTEX_POINT ( 'NONE', #157 ) ;
#157 = CARTESIAN_POINT ( 'NONE',  ( -5.000000000000000888, 0.0000000000000000000, 0.7500000000000000000 ) ) ;
#158 = CIRCLE ( 'NONE', #50, 5.000000000000000888 ) ;
#159 = DIRECTION ( 'NONE',  ( -1.000000000000000000, 0.0000000000000000000, 0.0000000000000000000 ) ) ;
#160 = ORIENTED_EDGE ( 'NONE', *, *, #17, .T. ) ;
#161 = CIRCLE ( 'NONE', #121, 5.000000000000000888 ) ;
#162 = FACE_OUTER_BOUND ( 'NONE', #119, .T. ) ;
#163 = CC_DESIGN_APPROVAL ( #95, ( #98 ) ) ;
#164 = PERSON ( 'UNSPECIFIED', 'UNSPECIFIED', 'UNSPECIFIED', ('UNSPECIFIED'), ('UNSPECIFIED'), ('UNSPECIFIED') ) ;
#165 = DIRECTION ( 'NONE',  ( 1.000000000000000000, 0.0000000000000000000, 0.0000000000000000000 ) ) ;
#166 = FACE_OUTER_BOUND ( 'NONE', #82, .T. ) ;
#167 = EDGE_CURVE ( 'NONE', #156, #96, #41, .T. ) ;
#168 = CARTESIAN_POINT ( 'NONE',  ( 0.0000000000000000000, 0.0000000000000000000, 0.7500000000000000000 ) ) ;
#169 = DIRECTION ( 'NONE',  ( -0.0000000000000000000, -0.0000000000000000000, -1.000000000000000000 ) ) ;
#170 = CALENDAR_DATE ( 2020, 7, 10 ) ;
#171 = APPROVAL_STATUS ( 'not_yet_approved' ) ;
#172 =( NAMED_UNIT ( * ) SI_UNIT ( $, .STERADIAN. ) SOLID_ANGLE_UNIT ( ) );
#173 = ORIENTED_EDGE ( 'NONE', *, *, #88, .F. ) ;
#174 = CC_DESIGN_PERSON_AND_ORGANIZATION_ASSIGNMENT ( #68, #8, ( #98 ) ) ;
#175 = AXIS2_PLACEMENT_3D ( 'NONE', #35, #91, #132 ) ;
ENDSEC;
END-ISO-10303-21;
