ISO-10303-21;
HEADER;
FILE_DESCRIPTION (( 'STEP AP203' ),
    '1' );
FILE_NAME ('Web Model 17682_17682.step',
    '2021-06-02T14:28:16',
    ( '' ),
    ( '' ),
    'SwSTEP 2.0',
    'SolidWorks 2018',
    '' );
FILE_SCHEMA (( 'CONFIG_CONTROL_DESIGN' ));
ENDSEC;

DATA;
#1 = PRODUCT_RELATED_PRODUCT_CATEGORY ( 'detail', '', ( #68 ) ) ;
#2 = VECTOR ( 'NONE', #195, 39.37007874015748143 ) ;
#3 = PERSON_AND_ORGANIZATION ( #102, #84 ) ;
#4 = DIRECTION ( 'NONE',  ( 1.000000000000000000, 0.000000000000000000, 0.000000000000000000 ) ) ;
#5 = CARTESIAN_POINT ( 'NONE',  ( 5.905511811023621327, 5.905511811023621327, 0.005000000000000000104 ) ) ;
#6 = CC_DESIGN_APPROVAL ( #218, ( #41 ) ) ;
#7 = ORIENTED_EDGE ( 'NONE', *, *, #144, .F. ) ;
#8 = DIRECTION ( 'NONE',  ( -1.850371707708594316E-16, 1.000000000000000000, -0.000000000000000000 ) ) ;
#9 = PERSON_AND_ORGANIZATION ( #102, #84 ) ;
#10 = CARTESIAN_POINT ( 'NONE',  ( 5.905511811023623103, -5.905511811023623103, 0.005000000000000000104 ) ) ;
#11 = CARTESIAN_POINT ( 'NONE',  ( -5.905511811023621327, -5.905511811023623103, 0.005000000000000000104 ) ) ;
#12 = CARTESIAN_POINT ( 'NONE',  ( -5.905511811023621327, -5.905511811023623103, 0.000000000000000000 ) ) ;
#13 = VECTOR ( 'NONE', #28, 39.37007874015748143 ) ;
#14 = CALENDAR_DATE ( 2021, 2, 6 ) ;
#15 = PERSON_AND_ORGANIZATION_ROLE ( 'classification_officer' ) ;
#16 = CC_DESIGN_PERSON_AND_ORGANIZATION_ASSIGNMENT ( #129, #44, ( #68 ) ) ;
#17 = DATE_TIME_ROLE ( 'classification_date' ) ;
#18 = VECTOR ( 'NONE', #191, 39.37007874015748143 ) ;
#19 = COORDINATED_UNIVERSAL_TIME_OFFSET ( 5, 0, .BEHIND. ) ;
#20 = ORIENTED_EDGE ( 'NONE', *, *, #204, .F. ) ;
#21 = CC_DESIGN_SECURITY_CLASSIFICATION ( #41, ( #70 ) ) ;
#22 = ORIENTED_EDGE ( 'NONE', *, *, #130, .F. ) ;
#23 = ADVANCED_FACE ( 'NONE', ( #63 ), #153, .F. ) ;
#24 = CC_DESIGN_PERSON_AND_ORGANIZATION_ASSIGNMENT ( #69, #214, ( #70 ) ) ;
#25 = PLANE ( 'NONE',  #152 ) ;
#26 = ORIENTED_EDGE ( 'NONE', *, *, #162, .T. ) ;
#27 = PLANE ( 'NONE',  #188 ) ;
#28 = DIRECTION ( 'NONE',  ( 1.850371707708594316E-16, -1.000000000000000000, 0.000000000000000000 ) ) ;
#29 = DIRECTION ( 'NONE',  ( 1.000000000000000000, 1.850371707708594316E-16, -0.000000000000000000 ) ) ;
#30 = DIRECTION ( 'NONE',  ( 0.000000000000000000, 0.000000000000000000, 1.000000000000000000 ) ) ;
#31 = ORIENTED_EDGE ( 'NONE', *, *, #165, .F. ) ;
#32 = APPLICATION_CONTEXT ( 'configuration controlled 3d designs of mechanical parts and assemblies' ) ;
#33 = VERTEX_POINT ( 'NONE', #134 ) ;
#34 = EDGE_CURVE ( 'NONE', #91, #56, #205, .T. ) ;
#35 = PERSON_AND_ORGANIZATION_ROLE ( 'design_supplier' ) ;
#36 = EDGE_CURVE ( 'NONE', #56, #183, #98, .T. ) ;
#37 = ORIENTED_EDGE ( 'NONE', *, *, #94, .T. ) ;
#38 = VECTOR ( 'NONE', #139, 39.37007874015748143 ) ;
#39 = DATE_AND_TIME ( #53, #148 ) ;
#40 = VECTOR ( 'NONE', #189, 39.37007874015748143 ) ;
#41 = SECURITY_CLASSIFICATION ( '', '', #231 ) ;
#42 = VECTOR ( 'NONE', #103, 39.37007874015748143 ) ;
#43 = MECHANICAL_CONTEXT ( 'NONE', #32, 'mechanical' ) ;
#44 = PERSON_AND_ORGANIZATION_ROLE ( 'design_owner' ) ;
#45 = CARTESIAN_POINT ( 'NONE',  ( -5.905511811023621327, -5.905511811023623103, 0.000000000000000000 ) ) ;
#46 = LINE ( 'NONE', #208, #201 ) ;
#47 = AXIS2_PLACEMENT_3D ( 'NONE', #79, #119, #141 ) ;
#48 = CARTESIAN_POINT ( 'NONE',  ( -5.905511811023623103, 5.905511811023621327, 0.005000000000000000104 ) ) ;
#49 = DIRECTION ( 'NONE',  ( -0.000000000000000000, 0.000000000000000000, 1.000000000000000000 ) ) ;
#50 = APPROVAL_DATE_TIME ( #39, #218 ) ;
#51 = CC_DESIGN_PERSON_AND_ORGANIZATION_ASSIGNMENT ( #132, #35, ( #70 ) ) ;
#52 = ORIENTED_EDGE ( 'NONE', *, *, #110, .T. ) ;
#53 = CALENDAR_DATE ( 2021, 2, 6 ) ;
#54 = LINE ( 'NONE', #170, #42 ) ;
#55 = DATE_AND_TIME ( #161, #164 ) ;
#56 = VERTEX_POINT ( 'NONE', #11 ) ;
#57 = PRODUCT_DEFINITION ( 'UNKNOWN', '', #70, #75 ) ;
#58 = COORDINATED_UNIVERSAL_TIME_OFFSET ( 5, 0, .BEHIND. ) ;
#59 = FACE_OUTER_BOUND ( 'NONE', #73, .T. ) ;
#60 = CALENDAR_DATE ( 2021, 2, 6 ) ;
#61 = DIRECTION ( 'NONE',  ( 0.000000000000000000, -1.000000000000000000, 0.000000000000000000 ) ) ;
#62 = DIRECTION ( 'NONE',  ( 1.000000000000000000, 0.000000000000000000, 0.000000000000000000 ) ) ;
#63 = FACE_OUTER_BOUND ( 'NONE', #105, .T. ) ;
#64 = CARTESIAN_POINT ( 'NONE',  ( -5.905511811023623103, 5.905511811023621327, 0.000000000000000000 ) ) ;
#65 = CARTESIAN_POINT ( 'NONE',  ( -5.905511811023623103, 5.905511811023621327, 0.000000000000000000 ) ) ;
#66 = DIRECTION ( 'NONE',  ( -1.000000000000000000, -1.850371707708594316E-16, 0.000000000000000000 ) ) ;
#67 = ORIENTED_EDGE ( 'NONE', *, *, #34, .F. ) ;
#68 = PRODUCT ( 'Web Model 17682_17682', 'Web Model 17682_17682', '', ( #43 ) ) ;
#69 = PERSON_AND_ORGANIZATION ( #102, #84 ) ;
#70 = PRODUCT_DEFINITION_FORMATION_WITH_SPECIFIED_SOURCE ( 'ANY', '', #68, .NOT_KNOWN. ) ;
#71 = LINE ( 'NONE', #45, #40 ) ;
#72 = ORIENTED_EDGE ( 'NONE', *, *, #36, .T. ) ;
#73 = EDGE_LOOP ( 'NONE', ( #160, #131, #113, #20 ) ) ;
#74 = MANIFOLD_SOLID_BREP ( 'Boss-Extrude1', #166 ) ;
#75 = DESIGN_CONTEXT ( 'detailed design', #86, 'design' ) ;
#76 = EDGE_LOOP ( 'NONE', ( #155, #111, #123, #26 ) ) ;
#77 = CARTESIAN_POINT ( 'NONE',  ( 5.905511811023621327, 5.905511811023621327, 0.005000000000000000104 ) ) ;
#78 = DIRECTION ( 'NONE',  ( -0.000000000000000000, 0.000000000000000000, 1.000000000000000000 ) ) ;
#79 = CARTESIAN_POINT ( 'NONE',  ( -5.905511811023621327, -5.905511811023623103, 0.005000000000000000104 ) ) ;
#80 = ORIENTED_EDGE ( 'NONE', *, *, #162, .F. ) ;
#81 = CARTESIAN_POINT ( 'NONE',  ( 0.000000000000000000, 0.000000000000000000, 0.005000000000000000104 ) ) ;
#82 = CARTESIAN_POINT ( 'NONE',  ( 5.905511811023621327, 5.905511811023621327, 0.000000000000000000 ) ) ;
#83 = LINE ( 'NONE', #117, #38 ) ;
#84 = ORGANIZATION ( 'UNSPECIFIED', 'UNSPECIFIED', '' ) ;
#85 = CC_DESIGN_DATE_AND_TIME_ASSIGNMENT ( #55, #178, ( #57 ) ) ;
#86 = APPLICATION_CONTEXT ( 'configuration controlled 3d designs of mechanical parts and assemblies' ) ;
#87 = VERTEX_POINT ( 'NONE', #157 ) ;
#88 = APPROVAL_PERSON_ORGANIZATION ( #9, #218, #198 ) ;
#89 = CC_DESIGN_APPROVAL ( #182, ( #70 ) ) ;
#90 = PERSON_AND_ORGANIZATION ( #102, #84 ) ;
#91 = VERTEX_POINT ( 'NONE', #100 ) ;
#92 = VECTOR ( 'NONE', #176, 39.37007874015748143 ) ;
#93 = PERSON_AND_ORGANIZATION ( #102, #84 ) ;
#94 = EDGE_CURVE ( 'NONE', #236, #183, #146, .T. ) ;
#95 = DIRECTION ( 'NONE',  ( 0.000000000000000000, -0.000000000000000000, -1.000000000000000000 ) ) ;
#96 = CARTESIAN_POINT ( 'NONE',  ( -5.905511811023623103, 5.905511811023621327, 0.000000000000000000 ) ) ;
#97 = CARTESIAN_POINT ( 'NONE',  ( 5.905511811023623103, -5.905511811023623103, 0.000000000000000000 ) ) ;
#98 = LINE ( 'NONE', #118, #18 ) ;
#99 = PERSON_AND_ORGANIZATION ( #102, #84 ) ;
#100 = CARTESIAN_POINT ( 'NONE',  ( -5.905511811023623103, 5.905511811023621327, 0.005000000000000000104 ) ) ;
#101 = ADVANCED_FACE ( 'NONE', ( #163 ), #225, .F. ) ;
#102 = PERSON ( 'UNSPECIFIED', 'UNSPECIFIED', 'UNSPECIFIED', ('UNSPECIFIED'), ('UNSPECIFIED'), ('UNSPECIFIED') ) ;
#103 = DIRECTION ( 'NONE',  ( -0.000000000000000000, -0.000000000000000000, -1.000000000000000000 ) ) ;
#104 = UNCERTAINTY_MEASURE_WITH_UNIT (LENGTH_MEASURE( 1.000000000000000082E-05 ), #122, 'distance_accuracy_value', 'NONE');
#105 = EDGE_LOOP ( 'NONE', ( #116, #31, #22, #167 ) ) ;
#106 = EDGE_LOOP ( 'NONE', ( #211, #80, #7, #72 ) ) ;
#107 = DATE_AND_TIME ( #14, #114 ) ;
#108 = VECTOR ( 'NONE', #159, 39.37007874015748143 ) ;
#109 = COORDINATED_UNIVERSAL_TIME_OFFSET ( 5, 0, .BEHIND. ) ;
#110 = EDGE_CURVE ( 'NONE', #33, #87, #207, .T. ) ;
#111 = ORIENTED_EDGE ( 'NONE', *, *, #171, .F. ) ;
#112 = CARTESIAN_POINT ( 'NONE',  ( -5.905511811023623103, 5.905511811023621327, 0.005000000000000000104 ) ) ;
#113 = ORIENTED_EDGE ( 'NONE', *, *, #94, .F. ) ;
#114 = LOCAL_TIME ( 10, 28, 16.00000000000000000, #187 ) ;
#115 = EDGE_CURVE ( 'NONE', #140, #128, #46, .T. ) ;
#116 = ORIENTED_EDGE ( 'NONE', *, *, #204, .T. ) ;
#117 = CARTESIAN_POINT ( 'NONE',  ( -5.905511811023621327, -5.905511811023623103, 0.005000000000000000104 ) ) ;
#118 = CARTESIAN_POINT ( 'NONE',  ( -5.905511811023621327, -5.905511811023623103, 0.005000000000000000104 ) ) ;
#119 = DIRECTION ( 'NONE',  ( 0.000000000000000000, 1.000000000000000000, 0.000000000000000000 ) ) ;
#120 = DIRECTION ( 'NONE',  ( -1.000000000000000000, -0.000000000000000000, -0.000000000000000000 ) ) ;
#121 = EDGE_CURVE ( 'NONE', #183, #140, #71, .T. ) ;
#122 =( CONVERSION_BASED_UNIT ( 'INCH', #136 ) LENGTH_UNIT ( ) NAMED_UNIT ( #226 ) );
#123 = ORIENTED_EDGE ( 'NONE', *, *, #110, .F. ) ;
#124 = APPROVAL_ROLE ( '' ) ;
#125 = APPROVAL_STATUS ( 'not_yet_approved' ) ;
#126 = AXIS2_PLACEMENT_3D ( 'NONE', #48, #29, #137 ) ;
#127 = APPROVAL_STATUS ( 'not_yet_approved' ) ;
#128 = VERTEX_POINT ( 'NONE', #82 ) ;
#129 = PERSON_AND_ORGANIZATION ( #102, #84 ) ;
#130 = EDGE_CURVE ( 'NONE', #87, #91, #190, .T. ) ;
#131 = ORIENTED_EDGE ( 'NONE', *, *, #121, .F. ) ;
#132 = PERSON_AND_ORGANIZATION ( #102, #84 ) ;
#133 = APPROVAL ( #199, 'UNSPECIFIED' ) ;
#134 = CARTESIAN_POINT ( 'NONE',  ( 5.905511811023623103, -5.905511811023623103, 0.005000000000000000104 ) ) ;
#135 = ADVANCED_FACE ( 'NONE', ( #59 ), #25, .F. ) ;
#136 = LENGTH_MEASURE_WITH_UNIT ( LENGTH_MEASURE( 0.02539999999999999897 ), #172 );
#137 = DIRECTION ( 'NONE',  ( -1.850371707708594316E-16, 1.000000000000000000, 0.000000000000000000 ) ) ;
#138 = CC_DESIGN_PERSON_AND_ORGANIZATION_ASSIGNMENT ( #99, #15, ( #41 ) ) ;
#139 = DIRECTION ( 'NONE',  ( 1.000000000000000000, 0.000000000000000000, 0.000000000000000000 ) ) ;
#140 = VERTEX_POINT ( 'NONE', #97 ) ;
#141 = DIRECTION ( 'NONE',  ( 0.000000000000000000, -0.000000000000000000, 1.000000000000000000 ) ) ;
#142 = CARTESIAN_POINT ( 'NONE',  ( 5.905511811023621327, 5.905511811023621327, 0.005000000000000000104 ) ) ;
#143 = APPLICATION_PROTOCOL_DEFINITION ( 'international standard', 'config_control_design', 1994, #86 ) ;
#144 = EDGE_CURVE ( 'NONE', #56, #33, #83, .T. ) ;
#145 = FACE_OUTER_BOUND ( 'NONE', #219, .T. ) ;
#146 = LINE ( 'NONE', #64, #216 ) ;
#147 = VECTOR ( 'NONE', #193, 39.37007874015748143 ) ;
#148 = LOCAL_TIME ( 10, 28, 16.00000000000000000, #58 ) ;
#149 = CC_DESIGN_PERSON_AND_ORGANIZATION_ASSIGNMENT ( #3, #217, ( #57 ) ) ;
#150 = ORIENTED_EDGE ( 'NONE', *, *, #34, .T. ) ;
#151 = DATE_AND_TIME ( #230, #184 ) ;
#152 = AXIS2_PLACEMENT_3D ( 'NONE', #158, #49, #62 ) ;
#153 = PLANE ( 'NONE',  #169 ) ;
#154 = CARTESIAN_POINT ( 'NONE',  ( -5.905511811023623103, 5.905511811023621327, 0.005000000000000000104 ) ) ;
#155 = ORIENTED_EDGE ( 'NONE', *, *, #115, .T. ) ;
#156 = ADVANCED_FACE ( 'NONE', ( #196 ), #227, .T. ) ;
#157 = CARTESIAN_POINT ( 'NONE',  ( 5.905511811023621327, 5.905511811023621327, 0.005000000000000000104 ) ) ;
#158 = CARTESIAN_POINT ( 'NONE',  ( 0.000000000000000000, 0.000000000000000000, 0.000000000000000000 ) ) ;
#159 = DIRECTION ( 'NONE',  ( -1.850371707708594316E-16, 1.000000000000000000, -0.000000000000000000 ) ) ;
#160 = ORIENTED_EDGE ( 'NONE', *, *, #115, .F. ) ;
#161 = CALENDAR_DATE ( 2021, 2, 6 ) ;
#162 = EDGE_CURVE ( 'NONE', #33, #140, #232, .T. ) ;
#163 = FACE_OUTER_BOUND ( 'NONE', #106, .T. ) ;
#164 = LOCAL_TIME ( 10, 28, 16.00000000000000000, #220 ) ;
#165 = EDGE_CURVE ( 'NONE', #91, #236, #54, .T. ) ;
#166 = CLOSED_SHELL ( 'NONE', ( #185, #23, #192, #101, #156, #135 ) ) ;
#167 = ORIENTED_EDGE ( 'NONE', *, *, #171, .T. ) ;
#168 = DATE_AND_TIME ( #60, #181 ) ;
#169 = AXIS2_PLACEMENT_3D ( 'NONE', #154, #61, #95 ) ;
#170 = CARTESIAN_POINT ( 'NONE',  ( -5.905511811023623103, 5.905511811023621327, 0.005000000000000000104 ) ) ;
#171 = EDGE_CURVE ( 'NONE', #87, #128, #221, .T. ) ;
#172 =( LENGTH_UNIT ( ) NAMED_UNIT ( * ) SI_UNIT ( $, .METRE. ) );
#173 = CARTESIAN_POINT ( 'NONE',  ( -5.905511811023623103, 5.905511811023621327, 0.005000000000000000104 ) ) ;
#174 = ORIENTED_EDGE ( 'NONE', *, *, #144, .T. ) ;
#175 = SHAPE_DEFINITION_REPRESENTATION ( #234, #223 ) ;
#176 = DIRECTION ( 'NONE',  ( -0.000000000000000000, -0.000000000000000000, -1.000000000000000000 ) ) ;
#177 = AXIS2_PLACEMENT_3D ( 'NONE', #81, #78, #213 ) ;
#178 = DATE_TIME_ROLE ( 'creation_date' ) ;
#179 = EDGE_LOOP ( 'NONE', ( #52, #239, #150, #174 ) ) ;
#180 = FACE_OUTER_BOUND ( 'NONE', #76, .T. ) ;
#181 = LOCAL_TIME ( 10, 28, 16.00000000000000000, #109 ) ;
#182 = APPROVAL ( #125, 'UNSPECIFIED' ) ;
#183 = VERTEX_POINT ( 'NONE', #12 ) ;
#184 = LOCAL_TIME ( 10, 28, 16.00000000000000000, #19 ) ;
#185 = ADVANCED_FACE ( 'NONE', ( #180 ), #27, .F. ) ;
#186 = VECTOR ( 'NONE', #120, 39.37007874015748143 ) ;
#187 = COORDINATED_UNIVERSAL_TIME_OFFSET ( 5, 0, .BEHIND. ) ;
#188 = AXIS2_PLACEMENT_3D ( 'NONE', #5, #66, #206 ) ;
#189 = DIRECTION ( 'NONE',  ( 1.000000000000000000, 0.000000000000000000, 0.000000000000000000 ) ) ;
#190 = LINE ( 'NONE', #173, #2 ) ;
#191 = DIRECTION ( 'NONE',  ( -0.000000000000000000, -0.000000000000000000, -1.000000000000000000 ) ) ;
#192 = ADVANCED_FACE ( 'NONE', ( #145 ), #210, .F. ) ;
#193 = DIRECTION ( 'NONE',  ( -0.000000000000000000, -0.000000000000000000, -1.000000000000000000 ) ) ;
#194 =( NAMED_UNIT ( * ) PLANE_ANGLE_UNIT ( ) SI_UNIT ( $, .RADIAN. ) );
#195 = DIRECTION ( 'NONE',  ( -1.000000000000000000, -0.000000000000000000, -0.000000000000000000 ) ) ;
#196 = FACE_OUTER_BOUND ( 'NONE', #179, .T. ) ;
#197 = APPROVAL_PERSON_ORGANIZATION ( #93, #182, #124 ) ;
#198 = APPROVAL_ROLE ( '' ) ;
#199 = APPROVAL_STATUS ( 'not_yet_approved' ) ;
#200 = CC_DESIGN_DATE_AND_TIME_ASSIGNMENT ( #168, #17, ( #41 ) ) ;
#201 = VECTOR ( 'NONE', #8, 39.37007874015748143 ) ;
#202 =( GEOMETRIC_REPRESENTATION_CONTEXT ( 3 ) GLOBAL_UNCERTAINTY_ASSIGNED_CONTEXT ( ( #104 ) ) GLOBAL_UNIT_ASSIGNED_CONTEXT ( ( #122, #194, #224 ) ) REPRESENTATION_CONTEXT ( 'NONE', 'WORKASPACE' ) );
#203 = ORIENTED_EDGE ( 'NONE', *, *, #165, .T. ) ;
#204 = EDGE_CURVE ( 'NONE', #128, #236, #237, .T. ) ;
#205 = LINE ( 'NONE', #112, #13 ) ;
#206 = DIRECTION ( 'NONE',  ( 1.850371707708594316E-16, -1.000000000000000000, 0.000000000000000000 ) ) ;
#207 = LINE ( 'NONE', #142, #108 ) ;
#208 = CARTESIAN_POINT ( 'NONE',  ( 5.905511811023621327, 5.905511811023621327, 0.000000000000000000 ) ) ;
#209 = DIRECTION ( 'NONE',  ( 1.850371707708594316E-16, -1.000000000000000000, 0.000000000000000000 ) ) ;
#210 = PLANE ( 'NONE',  #126 ) ;
#211 = ORIENTED_EDGE ( 'NONE', *, *, #121, .T. ) ;
#212 = APPROVAL_DATE_TIME ( #151, #133 ) ;
#213 = DIRECTION ( 'NONE',  ( 1.000000000000000000, 0.000000000000000000, 0.000000000000000000 ) ) ;
#214 = PERSON_AND_ORGANIZATION_ROLE ( 'creator' ) ;
#215 = APPROVAL_ROLE ( '' ) ;
#216 = VECTOR ( 'NONE', #209, 39.37007874015748143 ) ;
#217 = PERSON_AND_ORGANIZATION_ROLE ( 'creator' ) ;
#218 = APPROVAL ( #127, 'UNSPECIFIED' ) ;
#219 = EDGE_LOOP ( 'NONE', ( #37, #229, #67, #203 ) ) ;
#220 = COORDINATED_UNIVERSAL_TIME_OFFSET ( 5, 0, .BEHIND. ) ;
#221 = LINE ( 'NONE', #77, #147 ) ;
#222 = CARTESIAN_POINT ( 'NONE',  ( 0.000000000000000000, 0.000000000000000000, 0.000000000000000000 ) ) ;
#223 = ADVANCED_BREP_SHAPE_REPRESENTATION ( 'Web Model 17682_17682', ( #74, #238 ), #202 ) ;
#224 =( NAMED_UNIT ( * ) SI_UNIT ( $, .STERADIAN. ) SOLID_ANGLE_UNIT ( ) );
#225 = PLANE ( 'NONE',  #47 ) ;
#226 = DIMENSIONAL_EXPONENTS ( 1.000000000000000000, 0.000000000000000000, 0.000000000000000000, 0.000000000000000000, 0.000000000000000000, 0.000000000000000000, 0.000000000000000000 ) ;
#227 = PLANE ( 'NONE',  #177 ) ;
#228 = APPLICATION_PROTOCOL_DEFINITION ( 'international standard', 'config_control_design', 1994, #32 ) ;
#229 = ORIENTED_EDGE ( 'NONE', *, *, #36, .F. ) ;
#230 = CALENDAR_DATE ( 2021, 2, 6 ) ;
#231 = SECURITY_CLASSIFICATION_LEVEL ( 'unclassified' ) ;
#232 = LINE ( 'NONE', #10, #92 ) ;
#233 = APPROVAL_PERSON_ORGANIZATION ( #90, #133, #215 ) ;
#234 = PRODUCT_DEFINITION_SHAPE ( 'NONE', 'NONE',  #57 ) ;
#235 = CC_DESIGN_APPROVAL ( #133, ( #57 ) ) ;
#236 = VERTEX_POINT ( 'NONE', #96 ) ;
#237 = LINE ( 'NONE', #65, #186 ) ;
#238 = AXIS2_PLACEMENT_3D ( 'NONE', #222, #30, #4 ) ;
#239 = ORIENTED_EDGE ( 'NONE', *, *, #130, .T. ) ;
#240 = APPROVAL_DATE_TIME ( #107, #182 ) ;
ENDSEC;
END-ISO-10303-21;
