ISO-10303-21;
HEADER;
FILE_DESCRIPTION (( 'STEP AP203' ),
    '1' );
FILE_NAME ('Web Model 68735_47686.step',
    '2017-03-06T18:38:59',
    ( '' ),
    ( '' ),
    'SwSTEP 2.0',
    'SolidWorks 2016',
    '' );
FILE_SCHEMA (( 'CONFIG_CONTROL_DESIGN' ));
ENDSEC;

DATA;
#1 = CC_DESIGN_DATE_AND_TIME_ASSIGNMENT ( #172, #109, ( #116 ) ) ;
#2 = MECHANICAL_CONTEXT ( 'NONE', #17, 'mechanical' ) ;
#3 = APPLICATION_PROTOCOL_DEFINITION ( 'international standard', 'config_control_design', 1994, #100 ) ;
#4 = ORIENTED_EDGE ( 'NONE', *, *, #37, .T. ) ;
#5 = APPROVAL_STATUS ( 'not_yet_approved' ) ;
#6 = PLANE ( 'NONE',  #148 ) ;
#7 = DIRECTION ( 'NONE',  ( -1.000000000000000000, -0.0000000000000000000, -0.0000000000000000000 ) ) ;
#8 = LOCAL_TIME ( 13, 38, 59.00000000000000000, #87 ) ;
#9 = VECTOR ( 'NONE', #106, 1000.000000000000000 ) ;
#10 = AXIS2_PLACEMENT_3D ( 'NONE', #144, #61, #153 ) ;
#11 = DIRECTION ( 'NONE',  ( 0.0000000000000000000, 0.0000000000000000000, 1.000000000000000000 ) ) ;
#12 = PERSON_AND_ORGANIZATION ( #14, #158 ) ;
#13 = CC_DESIGN_PERSON_AND_ORGANIZATION_ASSIGNMENT ( #63, #98, ( #116 ) ) ;
#14 = PERSON ( 'UNSPECIFIED', 'UNSPECIFIED', 'UNSPECIFIED', ('UNSPECIFIED'), ('UNSPECIFIED'), ('UNSPECIFIED') ) ;
#15 = CARTESIAN_POINT ( 'NONE',  ( 0.0000000000000000000, 7.654042494670957600E-016, -6.250000000000000000 ) ) ;
#16 = APPROVAL_STATUS ( 'not_yet_approved' ) ;
#17 = APPLICATION_CONTEXT ( 'configuration controlled 3d designs of mechanical parts and assemblies' ) ;
#18 = EDGE_CURVE ( 'NONE', #157, #134, #44, .T. ) ;
#19 = PRODUCT_DEFINITION ( 'UNKNOWN', '', #72, #20 ) ;
#20 = DESIGN_CONTEXT ( 'detailed design', #100, 'design' ) ;
#21 = APPROVAL_PERSON_ORGANIZATION ( #165, #79, #164 ) ;
#22 = ORIENTED_EDGE ( 'NONE', *, *, #28, .F. ) ;
#23 = LOCAL_TIME ( 13, 38, 59.00000000000000000, #159 ) ;
#24 = CARTESIAN_POINT ( 'NONE',  ( 2.000000000000000000, 0.0000000000000000000, 6.250000000000000000 ) ) ;
#25 = DIRECTION ( 'NONE',  ( 1.000000000000000000, 0.0000000000000000000, 0.0000000000000000000 ) ) ;
#26 = FACE_OUTER_BOUND ( 'NONE', #95, .T. ) ;
#27 = CC_DESIGN_SECURITY_CLASSIFICATION ( #116, ( #72 ) ) ;
#28 = EDGE_CURVE ( 'NONE', #120, #108, #42, .T. ) ;
#29 = CC_DESIGN_PERSON_AND_ORGANIZATION_ASSIGNMENT ( #33, #83, ( #122 ) ) ;
#30 = CALENDAR_DATE ( 2017, 6, 3 ) ;
#31 = CIRCLE ( 'NONE', #46, 6.250000000000000000 ) ;
#32 = CIRCLE ( 'NONE', #10, 6.250000000000000000 ) ;
#33 = PERSON_AND_ORGANIZATION ( #14, #158 ) ;
#34 = CARTESIAN_POINT ( 'NONE',  ( 2.000000000000000000, 0.0000000000000000000, 0.0000000000000000000 ) ) ;
#35 = SECURITY_CLASSIFICATION_LEVEL ( 'unclassified' ) ;
#36 = FACE_OUTER_BOUND ( 'NONE', #38, .T. ) ;
#37 = EDGE_CURVE ( 'NONE', #134, #108, #32, .T. ) ;
#38 = EDGE_LOOP ( 'NONE', ( #71, #70, #74, #103 ) ) ;
#39 = AXIS2_PLACEMENT_3D ( 'NONE', #45, #69, #57 ) ;
#40 = DIRECTION ( 'NONE',  ( 1.000000000000000000, 0.0000000000000000000, 0.0000000000000000000 ) ) ;
#41 = ORIENTED_EDGE ( 'NONE', *, *, #162, .F. ) ;
#42 = LINE ( 'NONE', #24, #9 ) ;
#43 = CYLINDRICAL_SURFACE ( 'NONE', #110, 6.250000000000000000 ) ;
#44 = LINE ( 'NONE', #150, #166 ) ;
#45 = CARTESIAN_POINT ( 'NONE',  ( 0.0000000000000000000, 0.0000000000000000000, 0.0000000000000000000 ) ) ;
#46 = AXIS2_PLACEMENT_3D ( 'NONE', #133, #40, #90 ) ;
#47 = EDGE_CURVE ( 'NONE', #120, #157, #77, .T. ) ;
#48 = PRODUCT_DEFINITION_SHAPE ( 'NONE', 'NONE',  #19 ) ;
#49 = SHAPE_DEFINITION_REPRESENTATION ( #48, #55 ) ;
#50 = CC_DESIGN_PERSON_AND_ORGANIZATION_ASSIGNMENT ( #76, #135, ( #19 ) ) ;
#51 = DATE_AND_TIME ( #30, #23 ) ;
#52 = ADVANCED_FACE ( 'NONE', ( #147 ), #6, .T. ) ;
#53 = DIRECTION ( 'NONE',  ( 1.000000000000000000, 0.0000000000000000000, 0.0000000000000000000 ) ) ;
#54 = DIRECTION ( 'NONE',  ( 0.0000000000000000000, 0.0000000000000000000, -1.000000000000000000 ) ) ;
#55 = ADVANCED_BREP_SHAPE_REPRESENTATION ( 'Web Model 68735_47686', ( #118, #39 ), #142 ) ;
#56 = AXIS2_PLACEMENT_3D ( 'NONE', #89, #53, #58 ) ;
#57 = DIRECTION ( 'NONE',  ( 1.000000000000000000, 0.0000000000000000000, 0.0000000000000000000 ) ) ;
#58 = DIRECTION ( 'NONE',  ( 0.0000000000000000000, 0.0000000000000000000, -1.000000000000000000 ) ) ;
#59 = PERSON_AND_ORGANIZATION ( #14, #158 ) ;
#60 = ORIENTED_EDGE ( 'NONE', *, *, #37, .F. ) ;
#61 = DIRECTION ( 'NONE',  ( 1.000000000000000000, 0.0000000000000000000, 0.0000000000000000000 ) ) ;
#62 = CARTESIAN_POINT ( 'NONE',  ( 2.000000000000000000, 0.0000000000000000000, 0.0000000000000000000 ) ) ;
#63 = PERSON_AND_ORGANIZATION ( #14, #158 ) ;
#64 = CC_DESIGN_DATE_AND_TIME_ASSIGNMENT ( #139, #161, ( #19 ) ) ;
#65 = CARTESIAN_POINT ( 'NONE',  ( 0.0000000000000000000, 0.0000000000000000000, 0.0000000000000000000 ) ) ;
#66 = COORDINATED_UNIVERSAL_TIME_OFFSET ( 5, 0, .BEHIND. ) ;
#67 = ORIENTED_EDGE ( 'NONE', *, *, #18, .T. ) ;
#68 = APPROVAL_DATE_TIME ( #51, #79 ) ;
#69 = DIRECTION ( 'NONE',  ( 0.0000000000000000000, 0.0000000000000000000, 1.000000000000000000 ) ) ;
#70 = ORIENTED_EDGE ( 'NONE', *, *, #47, .F. ) ;
#71 = ORIENTED_EDGE ( 'NONE', *, *, #18, .F. ) ;
#72 = PRODUCT_DEFINITION_FORMATION_WITH_SPECIFIED_SOURCE ( 'ANY', '', #122, .NOT_KNOWN. ) ;
#73 = ADVANCED_FACE ( 'NONE', ( #175 ), #119, .T. ) ;
#74 = ORIENTED_EDGE ( 'NONE', *, *, #28, .T. ) ;
#75 = CARTESIAN_POINT ( 'NONE',  ( 2.000000000000000000, 7.654042494670957600E-016, -6.250000000000000000 ) ) ;
#76 = PERSON_AND_ORGANIZATION ( #14, #158 ) ;
#77 = CIRCLE ( 'NONE', #56, 6.250000000000000000 ) ;
#78 = CARTESIAN_POINT ( 'NONE',  ( 2.000000000000000000, 0.0000000000000000000, 6.250000000000000000 ) ) ;
#79 = APPROVAL ( #5, 'UNSPECIFIED' ) ;
#80 = CALENDAR_DATE ( 2017, 6, 3 ) ;
#81 = APPROVAL_ROLE ( '' ) ;
#82 = EDGE_CURVE ( 'NONE', #108, #134, #31, .T. ) ;
#83 = PERSON_AND_ORGANIZATION_ROLE ( 'design_owner' ) ;
#84 = PERSON_AND_ORGANIZATION_ROLE ( 'creator' ) ;
#85 = APPROVAL_PERSON_ORGANIZATION ( #59, #174, #99 ) ;
#86 = APPROVAL ( #16, 'UNSPECIFIED' ) ;
#87 = COORDINATED_UNIVERSAL_TIME_OFFSET ( 5, 0, .BEHIND. ) ;
#88 = UNCERTAINTY_MEASURE_WITH_UNIT (LENGTH_MEASURE( 1.000000000000000100E-005 ), #140, 'distance_accuracy_value', 'NONE');
#89 = CARTESIAN_POINT ( 'NONE',  ( 2.000000000000000000, 0.0000000000000000000, 0.0000000000000000000 ) ) ;
#90 = DIRECTION ( 'NONE',  ( 0.0000000000000000000, 0.0000000000000000000, -1.000000000000000000 ) ) ;
#91 = CC_DESIGN_APPROVAL ( #79, ( #72 ) ) ;
#92 = COORDINATED_UNIVERSAL_TIME_OFFSET ( 5, 0, .BEHIND. ) ;
#93 = APPROVAL_DATE_TIME ( #123, #174 ) ;
#94 = CALENDAR_DATE ( 2017, 6, 3 ) ;
#95 = EDGE_LOOP ( 'NONE', ( #173, #60 ) ) ;
#96 = PLANE ( 'NONE',  #131 ) ;
#97 = CALENDAR_DATE ( 2017, 6, 3 ) ;
#98 = PERSON_AND_ORGANIZATION_ROLE ( 'classification_officer' ) ;
#99 = APPROVAL_ROLE ( '' ) ;
#100 = APPLICATION_CONTEXT ( 'configuration controlled 3d designs of mechanical parts and assemblies' ) ;
#101 = PERSON_AND_ORGANIZATION ( #14, #158 ) ;
#102 = CIRCLE ( 'NONE', #121, 6.250000000000000000 ) ;
#103 = ORIENTED_EDGE ( 'NONE', *, *, #82, .T. ) ;
#104 = PRODUCT_RELATED_PRODUCT_CATEGORY ( 'detail', '', ( #122 ) ) ;
#105 = CC_DESIGN_PERSON_AND_ORGANIZATION_ASSIGNMENT ( #12, #84, ( #72 ) ) ;
#106 = DIRECTION ( 'NONE',  ( -1.000000000000000000, -0.0000000000000000000, -0.0000000000000000000 ) ) ;
#107 = APPROVAL_DATE_TIME ( #167, #86 ) ;
#108 = VERTEX_POINT ( 'NONE', #125 ) ;
#109 = DATE_TIME_ROLE ( 'classification_date' ) ;
#110 = AXIS2_PLACEMENT_3D ( 'NONE', #62, #7, #11 ) ;
#111 = APPROVAL_STATUS ( 'not_yet_approved' ) ;
#112 = CARTESIAN_POINT ( 'NONE',  ( 2.000000000000000000, 0.0000000000000000000, 0.0000000000000000000 ) ) ;
#113 = PERSON_AND_ORGANIZATION ( #14, #158 ) ;
#114 = ORIENTED_EDGE ( 'NONE', *, *, #47, .T. ) ;
#115 = DIRECTION ( 'NONE',  ( 0.0000000000000000000, 0.0000000000000000000, -1.000000000000000000 ) ) ;
#116 = SECURITY_CLASSIFICATION ( '', '', #35 ) ;
#117 = LOCAL_TIME ( 13, 38, 59.00000000000000000, #92 ) ;
#118 = MANIFOLD_SOLID_BREP ( 'Extrude1', #138 ) ;
#119 = CYLINDRICAL_SURFACE ( 'NONE', #154, 6.250000000000000000 ) ;
#120 = VERTEX_POINT ( 'NONE', #78 ) ;
#121 = AXIS2_PLACEMENT_3D ( 'NONE', #34, #160, #54 ) ;
#122 = PRODUCT ( 'Web Model 68735_47686', 'Web Model 68735_47686', '', ( #2 ) ) ;
#123 = DATE_AND_TIME ( #94, #8 ) ;
#124 = EDGE_LOOP ( 'NONE', ( #114, #170 ) ) ;
#125 = CARTESIAN_POINT ( 'NONE',  ( 0.0000000000000000000, 0.0000000000000000000, 6.250000000000000000 ) ) ;
#126 = CALENDAR_DATE ( 2017, 6, 3 ) ;
#127 =( NAMED_UNIT ( * ) SI_UNIT ( $, .STERADIAN. ) SOLID_ANGLE_UNIT ( ) );
#128 = CARTESIAN_POINT ( 'NONE',  ( 2.000000000000000000, 0.0000000000000000000, 0.0000000000000000000 ) ) ;
#129 = APPROVAL_PERSON_ORGANIZATION ( #101, #86, #81 ) ;
#130 = CC_DESIGN_PERSON_AND_ORGANIZATION_ASSIGNMENT ( #113, #149, ( #72 ) ) ;
#131 = AXIS2_PLACEMENT_3D ( 'NONE', #65, #146, #115 ) ;
#132 = COORDINATED_UNIVERSAL_TIME_OFFSET ( 5, 0, .BEHIND. ) ;
#133 = CARTESIAN_POINT ( 'NONE',  ( 0.0000000000000000000, 0.0000000000000000000, 0.0000000000000000000 ) ) ;
#134 = VERTEX_POINT ( 'NONE', #15 ) ;
#135 = PERSON_AND_ORGANIZATION_ROLE ( 'creator' ) ;
#136 = ADVANCED_FACE ( 'NONE', ( #26 ), #96, .F. ) ;
#137 = LOCAL_TIME ( 13, 38, 59.00000000000000000, #66 ) ;
#138 = CLOSED_SHELL ( 'NONE', ( #73, #143, #52, #136 ) ) ;
#139 = DATE_AND_TIME ( #126, #156 ) ;
#140 =( LENGTH_UNIT ( ) NAMED_UNIT ( * ) SI_UNIT ( .MILLI., .METRE. ) );
#141 = APPLICATION_PROTOCOL_DEFINITION ( 'international standard', 'config_control_design', 1994, #17 ) ;
#142 =( GEOMETRIC_REPRESENTATION_CONTEXT ( 3 ) GLOBAL_UNCERTAINTY_ASSIGNED_CONTEXT ( ( #88 ) ) GLOBAL_UNIT_ASSIGNED_CONTEXT ( ( #140, #151, #127 ) ) REPRESENTATION_CONTEXT ( 'NONE', 'WORKASPACE' ) );
#143 = ADVANCED_FACE ( 'NONE', ( #36 ), #43, .T. ) ;
#144 = CARTESIAN_POINT ( 'NONE',  ( 0.0000000000000000000, 0.0000000000000000000, 0.0000000000000000000 ) ) ;
#145 = EDGE_LOOP ( 'NONE', ( #41, #67, #4, #22 ) ) ;
#146 = DIRECTION ( 'NONE',  ( 1.000000000000000000, 0.0000000000000000000, 0.0000000000000000000 ) ) ;
#147 = FACE_OUTER_BOUND ( 'NONE', #124, .T. ) ;
#148 = AXIS2_PLACEMENT_3D ( 'NONE', #112, #25, #155 ) ;
#149 = PERSON_AND_ORGANIZATION_ROLE ( 'design_supplier' ) ;
#150 = CARTESIAN_POINT ( 'NONE',  ( 2.000000000000000000, 7.654042494670957600E-016, -6.250000000000000000 ) ) ;
#151 =( NAMED_UNIT ( * ) PLANE_ANGLE_UNIT ( ) SI_UNIT ( $, .RADIAN. ) );
#152 = CC_DESIGN_APPROVAL ( #86, ( #116 ) ) ;
#153 = DIRECTION ( 'NONE',  ( 0.0000000000000000000, 0.0000000000000000000, -1.000000000000000000 ) ) ;
#154 = AXIS2_PLACEMENT_3D ( 'NONE', #128, #169, #171 ) ;
#155 = DIRECTION ( 'NONE',  ( 0.0000000000000000000, 0.0000000000000000000, -1.000000000000000000 ) ) ;
#156 = LOCAL_TIME ( 13, 38, 59.00000000000000000, #132 ) ;
#157 = VERTEX_POINT ( 'NONE', #75 ) ;
#158 = ORGANIZATION ( 'UNSPECIFIED', 'UNSPECIFIED', '' ) ;
#159 = COORDINATED_UNIVERSAL_TIME_OFFSET ( 5, 0, .BEHIND. ) ;
#160 = DIRECTION ( 'NONE',  ( 1.000000000000000000, 0.0000000000000000000, 0.0000000000000000000 ) ) ;
#161 = DATE_TIME_ROLE ( 'creation_date' ) ;
#162 = EDGE_CURVE ( 'NONE', #157, #120, #102, .T. ) ;
#163 = CC_DESIGN_APPROVAL ( #174, ( #19 ) ) ;
#164 = APPROVAL_ROLE ( '' ) ;
#165 = PERSON_AND_ORGANIZATION ( #14, #158 ) ;
#166 = VECTOR ( 'NONE', #168, 1000.000000000000000 ) ;
#167 = DATE_AND_TIME ( #80, #137 ) ;
#168 = DIRECTION ( 'NONE',  ( -1.000000000000000000, -0.0000000000000000000, -0.0000000000000000000 ) ) ;
#169 = DIRECTION ( 'NONE',  ( -1.000000000000000000, -0.0000000000000000000, -0.0000000000000000000 ) ) ;
#170 = ORIENTED_EDGE ( 'NONE', *, *, #162, .T. ) ;
#171 = DIRECTION ( 'NONE',  ( 0.0000000000000000000, 0.0000000000000000000, 1.000000000000000000 ) ) ;
#172 = DATE_AND_TIME ( #97, #117 ) ;
#173 = ORIENTED_EDGE ( 'NONE', *, *, #82, .F. ) ;
#174 = APPROVAL ( #111, 'UNSPECIFIED' ) ;
#175 = FACE_OUTER_BOUND ( 'NONE', #145, .T. ) ;
ENDSEC;
END-ISO-10303-21;
