ISO-10303-21;
HEADER;
FILE_DESCRIPTION (( 'STEP AP203' ),
    '1' );
FILE_NAME ('Web Model 49756.STEP',
    '2017-01-31T15:23:59',
    ( '' ),
    ( '' ),
    'SwSTEP 2.0',
    'SolidWorks 2016',
    '' );
FILE_SCHEMA (( 'CONFIG_CONTROL_DESIGN' ));
ENDSEC;

DATA;
#1 = VECTOR ( 'NONE', #144, 1000.000000000000000 ) ;
#2 = FACE_OUTER_BOUND ( 'NONE', #110, .T. ) ;
#3 = PERSON_AND_ORGANIZATION ( #168, #176 ) ;
#4 = CC_DESIGN_PERSON_AND_ORGANIZATION_ASSIGNMENT ( #57, #28, ( #67 ) ) ;
#5 = VECTOR ( 'NONE', #36, 1000.000000000000000 ) ;
#6 = AXIS2_PLACEMENT_3D ( 'NONE', #35, #212, #229 ) ;
#7 = PERSON_AND_ORGANIZATION ( #168, #176 ) ;
#8 = PRODUCT ( 'Web Model 49756', 'Web Model 49756', '', ( #117 ) ) ;
#9 = ORIENTED_EDGE ( 'NONE', *, *, #186, .T. ) ;
#10 = SECURITY_CLASSIFICATION_LEVEL ( 'unclassified' ) ;
#11 = DATE_AND_TIME ( #203, #182 ) ;
#12 = APPROVAL_STATUS ( 'not_yet_approved' ) ;
#13 = LINE ( 'NONE', #32, #58 ) ;
#14 = AXIS2_PLACEMENT_3D ( 'NONE', #124, #233, #160 ) ;
#15 = CARTESIAN_POINT ( 'NONE',  ( 3.000000000000000000, 17.50000000000000000, -17.50000000000000000 ) ) ;
#16 = PLANE ( 'NONE',  #91 ) ;
#17 = EDGE_LOOP ( 'NONE', ( #81, #76, #173, #134 ) ) ;
#18 = CARTESIAN_POINT ( 'NONE',  ( 3.000000000000000000, 17.50000000000000000, 17.50000000000000000 ) ) ;
#19 = CARTESIAN_POINT ( 'NONE',  ( 3.000000000000000000, 17.50000000000000000, -17.50000000000000000 ) ) ;
#20 = CARTESIAN_POINT ( 'NONE',  ( 3.000000000000000000, -17.50000000000000000, -17.50000000000000000 ) ) ;
#21 = AXIS2_PLACEMENT_3D ( 'NONE', #40, #47, #99 ) ;
#22 = ORIENTED_EDGE ( 'NONE', *, *, #185, .T. ) ;
#23 = CLOSED_SHELL ( 'NONE', ( #228, #33, #179, #214, #123, #90 ) ) ;
#24 = DATE_AND_TIME ( #70, #170 ) ;
#25 = EDGE_LOOP ( 'NONE', ( #9, #129, #29, #201 ) ) ;
#26 = MANIFOLD_SOLID_BREP ( 'Extrude1', #23 ) ;
#27 =( LENGTH_UNIT ( ) NAMED_UNIT ( * ) SI_UNIT ( .MILLI., .METRE. ) );
#28 = PERSON_AND_ORGANIZATION_ROLE ( 'creator' ) ;
#29 = ORIENTED_EDGE ( 'NONE', *, *, #113, .F. ) ;
#30 = COORDINATED_UNIVERSAL_TIME_OFFSET ( 5, 0, .BEHIND. ) ;
#31 = ORIENTED_EDGE ( 'NONE', *, *, #85, .F. ) ;
#32 = CARTESIAN_POINT ( 'NONE',  ( 0.0000000000000000000, 17.50000000000000000, 17.50000000000000000 ) ) ;
#33 = ADVANCED_FACE ( 'NONE', ( #2 ), #174, .F. ) ;
#34 = COORDINATED_UNIVERSAL_TIME_OFFSET ( 5, 0, .BEHIND. ) ;
#35 = CARTESIAN_POINT ( 'NONE',  ( 3.000000000000000000, -17.50000000000000000, 17.50000000000000000 ) ) ;
#36 = DIRECTION ( 'NONE',  ( 0.0000000000000000000, -1.000000000000000000, 0.0000000000000000000 ) ) ;
#37 = DIRECTION ( 'NONE',  ( -0.0000000000000000000, -0.0000000000000000000, 1.000000000000000000 ) ) ;
#38 = DATE_AND_TIME ( #84, #131 ) ;
#39 = EDGE_CURVE ( 'NONE', #215, #166, #189, .T. ) ;
#40 = CARTESIAN_POINT ( 'NONE',  ( 0.0000000000000000000, 0.0000000000000000000, 0.0000000000000000000 ) ) ;
#41 = EDGE_LOOP ( 'NONE', ( #133, #150, #180, #88 ) ) ;
#42 = EDGE_CURVE ( 'NONE', #230, #79, #193, .T. ) ;
#43 = CC_DESIGN_DATE_AND_TIME_ASSIGNMENT ( #155, #187, ( #67 ) ) ;
#44 = FACE_OUTER_BOUND ( 'NONE', #17, .T. ) ;
#45 = EDGE_LOOP ( 'NONE', ( #63, #31, #132, #95 ) ) ;
#46 = ORIENTED_EDGE ( 'NONE', *, *, #219, .T. ) ;
#47 = DIRECTION ( 'NONE',  ( 0.0000000000000000000, 0.0000000000000000000, 1.000000000000000000 ) ) ;
#48 = APPROVAL_DATE_TIME ( #11, #177 ) ;
#49 = EDGE_LOOP ( 'NONE', ( #22, #46, #114, #157 ) ) ;
#50 = DIRECTION ( 'NONE',  ( 1.000000000000000000, 0.0000000000000000000, 0.0000000000000000000 ) ) ;
#51 = CARTESIAN_POINT ( 'NONE',  ( 3.000000000000000000, -17.50000000000000000, 17.50000000000000000 ) ) ;
#52 = LINE ( 'NONE', #161, #1 ) ;
#53 = DIRECTION ( 'NONE',  ( -0.0000000000000000000, 1.000000000000000000, -0.0000000000000000000 ) ) ;
#54 = APPROVAL ( #211, 'UNSPECIFIED' ) ;
#55 = CARTESIAN_POINT ( 'NONE',  ( 3.000000000000000000, 17.50000000000000000, 17.50000000000000000 ) ) ;
#56 = DIRECTION ( 'NONE',  ( -0.0000000000000000000, 0.0000000000000000000, 1.000000000000000000 ) ) ;
#57 = PERSON_AND_ORGANIZATION ( #168, #176 ) ;
#58 = VECTOR ( 'NONE', #106, 1000.000000000000000 ) ;
#59 = ORIENTED_EDGE ( 'NONE', *, *, #219, .F. ) ;
#60 = CC_DESIGN_APPROVAL ( #177, ( #103 ) ) ;
#61 = CC_DESIGN_PERSON_AND_ORGANIZATION_ASSIGNMENT ( #167, #83, ( #8 ) ) ;
#62 = VECTOR ( 'NONE', #53, 1000.000000000000000 ) ;
#63 = ORIENTED_EDGE ( 'NONE', *, *, #147, .T. ) ;
#64 =( NAMED_UNIT ( * ) PLANE_ANGLE_UNIT ( ) SI_UNIT ( $, .RADIAN. ) );
#65 = PERSON_AND_ORGANIZATION ( #168, #176 ) ;
#66 = FACE_OUTER_BOUND ( 'NONE', #45, .T. ) ;
#67 = PRODUCT_DEFINITION ( 'UNKNOWN', '', #108, #71 ) ;
#68 = VERTEX_POINT ( 'NONE', #15 ) ;
#69 = DIRECTION ( 'NONE',  ( 1.000000000000000000, 0.0000000000000000000, 0.0000000000000000000 ) ) ;
#70 = CALENDAR_DATE ( 2017, 31, 1 ) ;
#71 = DESIGN_CONTEXT ( 'detailed design', #138, 'design' ) ;
#72 = CARTESIAN_POINT ( 'NONE',  ( 0.0000000000000000000, 17.50000000000000000, -17.50000000000000000 ) ) ;
#73 = PRODUCT_RELATED_PRODUCT_CATEGORY ( 'detail', '', ( #8 ) ) ;
#74 = PLANE ( 'NONE',  #98 ) ;
#75 = LINE ( 'NONE', #217, #112 ) ;
#76 = ORIENTED_EDGE ( 'NONE', *, *, #147, .F. ) ;
#77 = CC_DESIGN_APPROVAL ( #54, ( #108 ) ) ;
#78 = LINE ( 'NONE', #86, #62 ) ;
#79 = VERTEX_POINT ( 'NONE', #122 ) ;
#80 = APPROVAL_ROLE ( '' ) ;
#81 = ORIENTED_EDGE ( 'NONE', *, *, #156, .F. ) ;
#82 = ADVANCED_BREP_SHAPE_REPRESENTATION ( 'Web Model 49756', ( #26, #21 ), #118 ) ;
#83 = PERSON_AND_ORGANIZATION_ROLE ( 'design_owner' ) ;
#84 = CALENDAR_DATE ( 2017, 31, 1 ) ;
#85 = EDGE_CURVE ( 'NONE', #225, #172, #223, .T. ) ;
#86 = CARTESIAN_POINT ( 'NONE',  ( 3.000000000000000000, 17.50000000000000000, -17.50000000000000000 ) ) ;
#87 = VECTOR ( 'NONE', #191, 1000.000000000000000 ) ;
#88 = ORIENTED_EDGE ( 'NONE', *, *, #85, .T. ) ;
#89 = PLANE ( 'NONE',  #210 ) ;
#90 = ADVANCED_FACE ( 'NONE', ( #44 ), #89, .F. ) ;
#91 = AXIS2_PLACEMENT_3D ( 'NONE', #171, #69, #192 ) ;
#92 = CARTESIAN_POINT ( 'NONE',  ( 0.0000000000000000000, -17.50000000000000000, 17.50000000000000000 ) ) ;
#93 = CC_DESIGN_PERSON_AND_ORGANIZATION_ASSIGNMENT ( #3, #226, ( #108 ) ) ;
#94 = CARTESIAN_POINT ( 'NONE',  ( 3.000000000000000000, 17.50000000000000000, 17.50000000000000000 ) ) ;
#95 = ORIENTED_EDGE ( 'NONE', *, *, #175, .T. ) ;
#96 = LOCAL_TIME ( 10, 23, 59.00000000000000000, #199 ) ;
#97 = LINE ( 'NONE', #55, #5 ) ;
#98 = AXIS2_PLACEMENT_3D ( 'NONE', #94, #162, #143 ) ;
#99 = DIRECTION ( 'NONE',  ( 1.000000000000000000, 0.0000000000000000000, 0.0000000000000000000 ) ) ;
#100 =( NAMED_UNIT ( * ) SI_UNIT ( $, .STERADIAN. ) SOLID_ANGLE_UNIT ( ) );
#101 = FACE_OUTER_BOUND ( 'NONE', #41, .T. ) ;
#102 = APPLICATION_PROTOCOL_DEFINITION ( 'international standard', 'config_control_design', 1994, #138 ) ;
#103 = SECURITY_CLASSIFICATION ( '', '', #10 ) ;
#104 = CARTESIAN_POINT ( 'NONE',  ( 0.0000000000000000000, -17.50000000000000000, 17.50000000000000000 ) ) ;
#105 = VECTOR ( 'NONE', #216, 1000.000000000000000 ) ;
#106 = DIRECTION ( 'NONE',  ( 0.0000000000000000000, -1.000000000000000000, 0.0000000000000000000 ) ) ;
#107 = DIRECTION ( 'NONE',  ( -0.0000000000000000000, 1.000000000000000000, -0.0000000000000000000 ) ) ;
#108 = PRODUCT_DEFINITION_FORMATION_WITH_SPECIFIED_SOURCE ( 'ANY', '', #8, .NOT_KNOWN. ) ;
#109 = LINE ( 'NONE', #121, #163 ) ;
#110 = EDGE_LOOP ( 'NONE', ( #222, #184, #59, #130 ) ) ;
#111 = APPROVAL_PERSON_ORGANIZATION ( #158, #54, #224 ) ;
#112 = VECTOR ( 'NONE', #37, 1000.000000000000000 ) ;
#113 = EDGE_CURVE ( 'NONE', #215, #68, #78, .T. ) ;
#114 = ORIENTED_EDGE ( 'NONE', *, *, #113, .T. ) ;
#115 = APPLICATION_CONTEXT ( 'configuration controlled 3d designs of mechanical parts and assemblies' ) ;
#116 = APPROVAL_STATUS ( 'not_yet_approved' ) ;
#117 = MECHANICAL_CONTEXT ( 'NONE', #115, 'mechanical' ) ;
#118 =( GEOMETRIC_REPRESENTATION_CONTEXT ( 3 ) GLOBAL_UNCERTAINTY_ASSIGNED_CONTEXT ( ( #178 ) ) GLOBAL_UNIT_ASSIGNED_CONTEXT ( ( #27, #64, #100 ) ) REPRESENTATION_CONTEXT ( 'NONE', 'WORKASPACE' ) );
#119 = CARTESIAN_POINT ( 'NONE',  ( 3.000000000000000000, -17.50000000000000000, -17.50000000000000000 ) ) ;
#120 = LINE ( 'NONE', #198, #145 ) ;
#121 = CARTESIAN_POINT ( 'NONE',  ( 3.000000000000000000, 17.50000000000000000, -17.50000000000000000 ) ) ;
#122 = CARTESIAN_POINT ( 'NONE',  ( 0.0000000000000000000, -17.50000000000000000, 17.50000000000000000 ) ) ;
#123 = ADVANCED_FACE ( 'NONE', ( #220 ), #16, .T. ) ;
#124 = CARTESIAN_POINT ( 'NONE',  ( 3.000000000000000000, 17.50000000000000000, 17.50000000000000000 ) ) ;
#125 = DIRECTION ( 'NONE',  ( -1.000000000000000000, -0.0000000000000000000, -0.0000000000000000000 ) ) ;
#126 = APPROVAL_DATE_TIME ( #38, #54 ) ;
#127 = FACE_OUTER_BOUND ( 'NONE', #25, .T. ) ;
#128 = PERSON_AND_ORGANIZATION ( #168, #176 ) ;
#129 = ORIENTED_EDGE ( 'NONE', *, *, #175, .F. ) ;
#130 = ORIENTED_EDGE ( 'NONE', *, *, #42, .T. ) ;
#131 = LOCAL_TIME ( 10, 23, 59.00000000000000000, #202 ) ;
#132 = ORIENTED_EDGE ( 'NONE', *, *, #227, .F. ) ;
#133 = ORIENTED_EDGE ( 'NONE', *, *, #156, .T. ) ;
#134 = ORIENTED_EDGE ( 'NONE', *, *, #200, .F. ) ;
#135 = PERSON_AND_ORGANIZATION_ROLE ( 'design_supplier' ) ;
#136 = COORDINATED_UNIVERSAL_TIME_OFFSET ( 5, 0, .BEHIND. ) ;
#137 = PRODUCT_DEFINITION_SHAPE ( 'NONE', 'NONE',  #67 ) ;
#138 = APPLICATION_CONTEXT ( 'configuration controlled 3d designs of mechanical parts and assemblies' ) ;
#139 = CALENDAR_DATE ( 2017, 31, 1 ) ;
#140 = SHAPE_DEFINITION_REPRESENTATION ( #137, #82 ) ;
#141 = APPROVAL ( #116, 'UNSPECIFIED' ) ;
#142 = DIRECTION ( 'NONE',  ( -1.000000000000000000, -0.0000000000000000000, -0.0000000000000000000 ) ) ;
#143 = DIRECTION ( 'NONE',  ( -1.000000000000000000, 0.0000000000000000000, -0.0000000000000000000 ) ) ;
#144 = DIRECTION ( 'NONE',  ( 0.0000000000000000000, 0.0000000000000000000, -1.000000000000000000 ) ) ;
#145 = VECTOR ( 'NONE', #196, 1000.000000000000000 ) ;
#146 = CARTESIAN_POINT ( 'NONE',  ( 3.000000000000000000, -17.50000000000000000, 17.50000000000000000 ) ) ;
#147 = EDGE_CURVE ( 'NONE', #206, #172, #120, .T. ) ;
#148 = APPROVAL_PERSON_ORGANIZATION ( #151, #177, #80 ) ;
#149 = CC_DESIGN_PERSON_AND_ORGANIZATION_ASSIGNMENT ( #65, #207, ( #103 ) ) ;
#150 = ORIENTED_EDGE ( 'NONE', *, *, #42, .F. ) ;
#151 = PERSON_AND_ORGANIZATION ( #168, #176 ) ;
#152 = VECTOR ( 'NONE', #142, 1000.000000000000000 ) ;
#153 = CC_DESIGN_PERSON_AND_ORGANIZATION_ASSIGNMENT ( #7, #135, ( #108 ) ) ;
#154 = DATE_TIME_ROLE ( 'classification_date' ) ;
#155 = DATE_AND_TIME ( #221, #204 ) ;
#156 = EDGE_CURVE ( 'NONE', #172, #79, #13, .T. ) ;
#157 = ORIENTED_EDGE ( 'NONE', *, *, #227, .T. ) ;
#158 = PERSON_AND_ORGANIZATION ( #168, #176 ) ;
#159 = CARTESIAN_POINT ( 'NONE',  ( 3.000000000000000000, 17.50000000000000000, 17.50000000000000000 ) ) ;
#160 = DIRECTION ( 'NONE',  ( 0.0000000000000000000, -0.0000000000000000000, -1.000000000000000000 ) ) ;
#161 = CARTESIAN_POINT ( 'NONE',  ( 3.000000000000000000, -17.50000000000000000, 17.50000000000000000 ) ) ;
#162 = DIRECTION ( 'NONE',  ( 0.0000000000000000000, 0.0000000000000000000, -1.000000000000000000 ) ) ;
#163 = VECTOR ( 'NONE', #125, 1000.000000000000000 ) ;
#164 = APPROVAL_PERSON_ORGANIZATION ( #128, #141, #209 ) ;
#165 = CC_DESIGN_APPROVAL ( #141, ( #67 ) ) ;
#166 = VERTEX_POINT ( 'NONE', #218 ) ;
#167 = PERSON_AND_ORGANIZATION ( #168, #176 ) ;
#168 = PERSON ( 'UNSPECIFIED', 'UNSPECIFIED', 'UNSPECIFIED', ('UNSPECIFIED'), ('UNSPECIFIED'), ('UNSPECIFIED') ) ;
#169 = LINE ( 'NONE', #92, #105 ) ;
#170 = LOCAL_TIME ( 10, 23, 59.00000000000000000, #30 ) ;
#171 = CARTESIAN_POINT ( 'NONE',  ( 3.000000000000000000, -17.50000000000000000, 17.50000000000000000 ) ) ;
#172 = VERTEX_POINT ( 'NONE', #195 ) ;
#173 = ORIENTED_EDGE ( 'NONE', *, *, #186, .F. ) ;
#174 = PLANE ( 'NONE',  #6 ) ;
#175 = EDGE_CURVE ( 'NONE', #68, #206, #109, .T. ) ;
#176 = ORGANIZATION ( 'UNSPECIFIED', 'UNSPECIFIED', '' ) ;
#177 = APPROVAL ( #12, 'UNSPECIFIED' ) ;
#178 = UNCERTAINTY_MEASURE_WITH_UNIT (LENGTH_MEASURE( 1.000000000000000100E-005 ), #27, 'distance_accuracy_value', 'NONE');
#179 = ADVANCED_FACE ( 'NONE', ( #127 ), #232, .F. ) ;
#180 = ORIENTED_EDGE ( 'NONE', *, *, #185, .F. ) ;
#181 = DIRECTION ( 'NONE',  ( 1.000000000000000000, 0.0000000000000000000, 0.0000000000000000000 ) ) ;
#182 = LOCAL_TIME ( 10, 23, 59.00000000000000000, #136 ) ;
#183 = CARTESIAN_POINT ( 'NONE',  ( 0.0000000000000000000, 17.50000000000000000, -17.50000000000000000 ) ) ;
#184 = ORIENTED_EDGE ( 'NONE', *, *, #39, .F. ) ;
#185 = EDGE_CURVE ( 'NONE', #225, #230, #97, .T. ) ;
#186 = EDGE_CURVE ( 'NONE', #166, #206, #197, .T. ) ;
#187 = DATE_TIME_ROLE ( 'creation_date' ) ;
#188 = APPLICATION_PROTOCOL_DEFINITION ( 'international standard', 'config_control_design', 1994, #115 ) ;
#189 = LINE ( 'NONE', #119, #235 ) ;
#190 = DIRECTION ( 'NONE',  ( 0.0000000000000000000, 0.0000000000000000000, -1.000000000000000000 ) ) ;
#191 = DIRECTION ( 'NONE',  ( -1.000000000000000000, -0.0000000000000000000, -0.0000000000000000000 ) ) ;
#192 = DIRECTION ( 'NONE',  ( 0.0000000000000000000, 0.0000000000000000000, -1.000000000000000000 ) ) ;
#193 = LINE ( 'NONE', #51, #87 ) ;
#194 = DIRECTION ( 'NONE',  ( -1.000000000000000000, -0.0000000000000000000, -0.0000000000000000000 ) ) ;
#195 = CARTESIAN_POINT ( 'NONE',  ( 0.0000000000000000000, 17.50000000000000000, 17.50000000000000000 ) ) ;
#196 = DIRECTION ( 'NONE',  ( -0.0000000000000000000, -0.0000000000000000000, 1.000000000000000000 ) ) ;
#197 = LINE ( 'NONE', #72, #205 ) ;
#198 = CARTESIAN_POINT ( 'NONE',  ( 0.0000000000000000000, 17.50000000000000000, 17.50000000000000000 ) ) ;
#199 = COORDINATED_UNIVERSAL_TIME_OFFSET ( 5, 0, .BEHIND. ) ;
#200 = EDGE_CURVE ( 'NONE', #79, #166, #169, .T. ) ;
#201 = ORIENTED_EDGE ( 'NONE', *, *, #39, .T. ) ;
#202 = COORDINATED_UNIVERSAL_TIME_OFFSET ( 5, 0, .BEHIND. ) ;
#203 = CALENDAR_DATE ( 2017, 31, 1 ) ;
#204 = LOCAL_TIME ( 10, 23, 59.00000000000000000, #34 ) ;
#205 = VECTOR ( 'NONE', #107, 1000.000000000000000 ) ;
#206 = VERTEX_POINT ( 'NONE', #183 ) ;
#207 = PERSON_AND_ORGANIZATION_ROLE ( 'classification_officer' ) ;
#208 = APPROVAL_DATE_TIME ( #24, #141 ) ;
#209 = APPROVAL_ROLE ( '' ) ;
#210 = AXIS2_PLACEMENT_3D ( 'NONE', #104, #50, #190 ) ;
#211 = APPROVAL_STATUS ( 'not_yet_approved' ) ;
#212 = DIRECTION ( 'NONE',  ( -0.0000000000000000000, 1.000000000000000000, 0.0000000000000000000 ) ) ;
#213 = CC_DESIGN_SECURITY_CLASSIFICATION ( #103, ( #108 ) ) ;
#214 = ADVANCED_FACE ( 'NONE', ( #66 ), #236, .F. ) ;
#215 = VERTEX_POINT ( 'NONE', #20 ) ;
#216 = DIRECTION ( 'NONE',  ( 0.0000000000000000000, 0.0000000000000000000, -1.000000000000000000 ) ) ;
#217 = CARTESIAN_POINT ( 'NONE',  ( 3.000000000000000000, 17.50000000000000000, 17.50000000000000000 ) ) ;
#218 = CARTESIAN_POINT ( 'NONE',  ( 0.0000000000000000000, -17.50000000000000000, -17.50000000000000000 ) ) ;
#219 = EDGE_CURVE ( 'NONE', #230, #215, #52, .T. ) ;
#220 = FACE_OUTER_BOUND ( 'NONE', #49, .T. ) ;
#221 = CALENDAR_DATE ( 2017, 31, 1 ) ;
#222 = ORIENTED_EDGE ( 'NONE', *, *, #200, .T. ) ;
#223 = LINE ( 'NONE', #18, #152 ) ;
#224 = APPROVAL_ROLE ( '' ) ;
#225 = VERTEX_POINT ( 'NONE', #159 ) ;
#226 = PERSON_AND_ORGANIZATION_ROLE ( 'creator' ) ;
#227 = EDGE_CURVE ( 'NONE', #68, #225, #75, .T. ) ;
#228 = ADVANCED_FACE ( 'NONE', ( #101 ), #74, .F. ) ;
#229 = DIRECTION ( 'NONE',  ( 0.0000000000000000000, -0.0000000000000000000, 1.000000000000000000 ) ) ;
#230 = VERTEX_POINT ( 'NONE', #146 ) ;
#231 = CC_DESIGN_DATE_AND_TIME_ASSIGNMENT ( #237, #154, ( #103 ) ) ;
#232 = PLANE ( 'NONE',  #234 ) ;
#233 = DIRECTION ( 'NONE',  ( 0.0000000000000000000, -1.000000000000000000, 0.0000000000000000000 ) ) ;
#234 = AXIS2_PLACEMENT_3D ( 'NONE', #19, #56, #181 ) ;
#235 = VECTOR ( 'NONE', #194, 1000.000000000000000 ) ;
#236 = PLANE ( 'NONE',  #14 ) ;
#237 = DATE_AND_TIME ( #139, #96 ) ;
ENDSEC;
END-ISO-10303-21;
