ISO-10303-21;
HEADER;
FILE_DESCRIPTION (( 'STEP AP203' ),
    '1' );
FILE_NAME ('10mm BEAMSPLITTER CUBE TS_48880.step',
    '2021-09-20T13:33:37',
    ( '' ),
    ( '' ),
    'SwSTEP 2.0',
    'SolidWorks 2018',
    '' );
FILE_SCHEMA (( 'CONFIG_CONTROL_DESIGN' ));
ENDSEC;

DATA;
#1 = DIRECTION ( 'NONE',  ( 0.000000000000000000, -0.7071067811865515695, -0.7071067811865435759 ) ) ;
#2 = CALENDAR_DATE ( 2021, 20, 9 ) ;
#3 = CALENDAR_DATE ( 2021, 20, 9 ) ;
#4 = LINE ( 'NONE', #335, #140 ) ;
#5 = VERTEX_POINT ( 'NONE', #190 ) ;
#6 = ORIENTED_EDGE ( 'NONE', *, *, #66, .F. ) ;
#7 = AXIS2_PLACEMENT_3D ( 'NONE', #221, #24, #215 ) ;
#8 = DIRECTION ( 'NONE',  ( -1.000000000000000000, -0.000000000000000000, -0.000000000000000000 ) ) ;
#9 = PERSON_AND_ORGANIZATION ( #194, #256 ) ;
#10 = APPROVAL_PERSON_ORGANIZATION ( #50, #258, #15 ) ;
#11 = ORIENTED_EDGE ( 'NONE', *, *, #350, .T. ) ;
#12 = PERSON_AND_ORGANIZATION_ROLE ( 'creator' ) ;
#13 = COORDINATED_UNIVERSAL_TIME_OFFSET ( 5, 0, .BEHIND. ) ;
#14 = CC_DESIGN_PERSON_AND_ORGANIZATION_ASSIGNMENT ( #117, #136, ( #89 ) ) ;
#15 = APPROVAL_ROLE ( '' ) ;
#16 = ORIENTED_EDGE ( 'NONE', *, *, #247, .T. ) ;
#17 = ADVANCED_FACE ( 'NONE', ( #153 ), #250, .T. ) ;
#18 = PERSON_AND_ORGANIZATION_ROLE ( 'creator' ) ;
#19 = APPROVAL_ROLE ( '' ) ;
#20 = CALENDAR_DATE ( 2021, 20, 9 ) ;
#21 = PERSON_AND_ORGANIZATION ( #194, #256 ) ;
#22 = COORDINATED_UNIVERSAL_TIME_OFFSET ( 5, 0, .BEHIND. ) ;
#23 = CC_DESIGN_DATE_AND_TIME_ASSIGNMENT ( #45, #236, ( #329 ) ) ;
#24 = DIRECTION ( 'NONE',  ( -1.000000000000000000, 0.000000000000000000, 0.000000000000000000 ) ) ;
#25 = CONTEXT_DEPENDENT_SHAPE_REPRESENTATION ( #249, #257 ) ;
#26 = APPROVAL_DATE_TIME ( #278, #314 ) ;
#27 = SECURITY_CLASSIFICATION ( '', '', #260 ) ;
#28 = CARTESIAN_POINT ( 'NONE',  ( -5.000000000000000000, 7.071067811865434649, -4.801055335612047211E-16 ) ) ;
#29 = APPROVAL ( #293, 'UNSPECIFIED' ) ;
#30 = PERSON ( 'NAUO-PER1', 'UNSPECIFIED', 'UNSPECIFIED', ('UNSPECIFIED'), ('UNSPECIFIED'), ('UNSPECIFIED') ) ;
#31 = UNCERTAINTY_MEASURE_WITH_UNIT (LENGTH_MEASURE( 1.000000000000000082E-05 ), #233, 'distance_accuracy_value', 'NONE');
#32 = PLANE ( 'NONE',  #100 ) ;
#33 = VERTEX_POINT ( 'NONE', #61 ) ;
#34 = ORIENTED_EDGE ( 'NONE', *, *, #280, .F. ) ;
#35 = CALENDAR_DATE ( 2021, 20, 9 ) ;
#36 = COORDINATED_UNIVERSAL_TIME_OFFSET ( 5, 0, .BEHIND. ) ;
#37 = CC_DESIGN_APPROVAL ( #29, ( #89 ) ) ;
#38 = DATE_AND_TIME ( #20, #80 ) ;
#39 = PERSON_AND_ORGANIZATION ( #194, #256 ) ;
#40 = DIRECTION ( 'NONE',  ( 1.000000000000000000, 0.000000000000000000, 0.000000000000000000 ) ) ;
#41 = APPROVAL_ROLE ( '' ) ;
#42 = DIRECTION ( 'NONE',  ( 1.000000000000000000, 0.000000000000000000, 0.000000000000000000 ) ) ;
#43 = AXIS2_PLACEMENT_3D ( 'NONE', #158, #349, #348 ) ;
#44 = DATE_TIME_ROLE ( 'classification_date' ) ;
#45 = DATE_AND_TIME ( #332, #73 ) ;
#46 = CARTESIAN_POINT ( 'NONE',  ( 0.000000000000000000, 0.000000000000000000, 0.000000000000000000 ) ) ;
#47 = ORIENTED_EDGE ( 'NONE', *, *, #264, .T. ) ;
#48 = CC_DESIGN_PERSON_AND_ORGANIZATION_ASSIGNMENT ( #313, #320, ( #27 ) ) ;
#49 = AXIS2_PLACEMENT_3D ( 'NONE', #46, #209, #75 ) ;
#50 = PERSON_AND_ORGANIZATION ( #194, #256 ) ;
#51 = DESIGN_CONTEXT ( 'detailed design', #353, 'design' ) ;
#52 = LINE ( 'NONE', #28, #261 ) ;
#53 = DATE_TIME_ROLE ( 'classification_date' ) ;
#54 = CALENDAR_DATE ( 2021, 20, 9 ) ;
#55 = VERTEX_POINT ( 'NONE', #279 ) ;
#56 = CARTESIAN_POINT ( 'NONE',  ( 5.000000000000000000, 0.000000000000000000, 7.071067811865514585 ) ) ;
#57 = FACE_OUTER_BOUND ( 'NONE', #266, .T. ) ;
#58 = DIRECTION ( 'NONE',  ( -1.000000000000000000, -0.000000000000000000, -0.000000000000000000 ) ) ;
#59 = APPROVAL ( #324, 'UNKNOWN' ) ;
#60 = PERSON_AND_ORGANIZATION ( #63, #197 ) ;
#61 = CARTESIAN_POINT ( 'NONE',  ( -5.000000000000000000, 7.071067811865434649, -4.801055335612047211E-16 ) ) ;
#62 = UNCERTAINTY_MEASURE_WITH_UNIT (LENGTH_MEASURE( 1.000000000000000082E-05 ), #131, 'distance_accuracy_value', 'NONE');
#63 = PERSON ( 'NAUO-PER2', 'UNSPECIFIED', 'UNSPECIFIED', ('UNSPECIFIED'), ('UNSPECIFIED'), ('UNSPECIFIED') ) ;
#64 = EDGE_LOOP ( 'NONE', ( #167, #338, #252 ) ) ;
#65 = LOCAL_TIME ( 9, 33, 37.00000000000000000, #185 ) ;
#66 = EDGE_CURVE ( 'NONE', #135, #203, #192, .T. ) ;
#67 = DIRECTION ( 'NONE',  ( 0.000000000000000000, 6.123233995732582608E-17, 1.000000000000000000 ) ) ;
#68 = DATE_AND_TIME ( #54, #301 ) ;
#69 = PERSON_AND_ORGANIZATION ( #194, #256 ) ;
#70 = LINE ( 'NONE', #315, #191 ) ;
#71 = APPROVAL_STATUS ( 'not_yet_approved' ) ;
#72 = APPROVAL_STATUS ( 'not_yet_approved' ) ;
#73 = LOCAL_TIME ( 9, 33, 37.00000000000000000, #251 ) ;
#74 = APPLICATION_PROTOCOL_DEFINITION ( 'international standard', 'config_control_design', 1994, #133 ) ;
#75 = DIRECTION ( 'NONE',  ( 1.000000000000000000, -6.162975822039156098E-33, 6.162975822039154730E-33 ) ) ;
#76 = APPLICATION_CONTEXT ( 'configuration controlled 3d designs of mechanical parts and assemblies' ) ;
#77 = EDGE_CURVE ( 'NONE', #84, #33, #4, .T. ) ;
#78 = CC_DESIGN_PERSON_AND_ORGANIZATION_ASSIGNMENT ( #118, #205, ( #120 ) ) ;
#79 =( GEOMETRIC_REPRESENTATION_CONTEXT ( 3 ) GLOBAL_UNCERTAINTY_ASSIGNED_CONTEXT ( ( #31 ) ) GLOBAL_UNIT_ASSIGNED_CONTEXT ( ( #233, #316, #234 ) ) REPRESENTATION_CONTEXT ( 'NONE', 'WORKASPACE' ) );
#80 = LOCAL_TIME ( 9, 33, 37.00000000000000000, #148 ) ;
#81 = LOCAL_TIME ( 9, 33, 37.00000000000000000, #13 ) ;
#82 = CC_DESIGN_SECURITY_CLASSIFICATION ( #309, ( #361 ) ) ;
#83 = ORIENTED_EDGE ( 'NONE', *, *, #66, .T. ) ;
#84 = VERTEX_POINT ( 'NONE', #219 ) ;
#85 = LOCAL_TIME ( 9, 33, 37.00000000000000000, #22 ) ;
#86 = CC_DESIGN_APPROVAL ( #201, ( #213 ) ) ;
#87 = APPROVAL_PERSON_ORGANIZATION ( #60, #132, #246 ) ;
#88 = DATE_AND_TIME ( #268, #81 ) ;
#89 = PRODUCT_DEFINITION_FORMATION_WITH_SPECIFIED_SOURCE ( 'ANY', '', #120, .NOT_KNOWN. ) ;
#90 = PLANE ( 'NONE',  #244 ) ;
#91 = DIRECTION ( 'NONE',  ( 0.000000000000000000, -0.7071067811865436870, -0.7071067811865513475 ) ) ;
#92 = COORDINATED_UNIVERSAL_TIME_OFFSET ( 5, 0, .BEHIND. ) ;
#93 = SHAPE_REPRESENTATION_RELATIONSHIP ( 'NONE' , 'NONE' ,  #231, #272 ) ;
#94 = DIRECTION ( 'NONE',  ( 0.000000000000000000, 0.000000000000000000, 1.000000000000000000 ) ) ;
#95 = CC_DESIGN_DATE_AND_TIME_ASSIGNMENT ( #188, #202, ( #213 ) ) ;
#96 = PRODUCT_DEFINITION_SHAPE ( 'NONE', 'NONE',  #329 ) ;
#97 = PERSON_AND_ORGANIZATION_ROLE ( 'design_owner' ) ;
#98 = APPROVAL_PERSON_ORGANIZATION ( #69, #227, #134 ) ;
#99 = CARTESIAN_POINT ( 'NONE',  ( 0.000000000000000000, 0.000000000000000000, 0.000000000000000000 ) ) ;
#100 = AXIS2_PLACEMENT_3D ( 'NONE', #225, #122, #285 ) ;
#101 = VECTOR ( 'NONE', #345, 1000.000000000000000 ) ;
#102 =( REPRESENTATION_RELATIONSHIP ('NONE','NONE', #114, #231 ) REPRESENTATION_RELATIONSHIP_WITH_TRANSFORMATION ( #137 )SHAPE_REPRESENTATION_RELATIONSHIP( ) );
#103 = PERSON_AND_ORGANIZATION ( #194, #256 ) ;
#104 = LOCAL_TIME ( 9, 33, 37.00000000000000000, #299 ) ;
#105 = APPLICATION_PROTOCOL_DEFINITION ( 'international standard', 'config_control_design', 1994, #76 ) ;
#106 = CC_DESIGN_DATE_AND_TIME_ASSIGNMENT ( #88, #44, ( #27 ) ) ;
#107 = CALENDAR_DATE ( 2021, 20, 9 ) ;
#108 = VECTOR ( 'NONE', #58, 1000.000000000000000 ) ;
#109 = PERSON_AND_ORGANIZATION_ROLE ( 'classification_officer' ) ;
#110 = MANIFOLD_SOLID_BREP ( 'Extrude1', #282 ) ;
#111 = APPROVAL_PERSON_ORGANIZATION ( #283, #29, #323 ) ;
#112 = CARTESIAN_POINT ( 'NONE',  ( 5.000000000000000000, 7.071067811865434649, -4.801055335612047211E-16 ) ) ;
#113 = CC_DESIGN_PERSON_AND_ORGANIZATION_ASSIGNMENT ( #166, #97, ( #172 ) ) ;
#114 = SHAPE_REPRESENTATION ( '10mm BEAMSPLITTER CUBE TS_48880', ( #43, #128, #49 ), #121 ) ;
#115 = PRODUCT_RELATED_PRODUCT_CATEGORY ( 'detail', '', ( #172 ) ) ;
#116 = DESIGN_CONTEXT ( 'detailed design', #133, 'design' ) ;
#117 = PERSON_AND_ORGANIZATION ( #194, #256 ) ;
#118 = PERSON_AND_ORGANIZATION ( #194, #256 ) ;
#119 = DIRECTION ( 'NONE',  ( -1.000000000000000000, -0.000000000000000000, -0.000000000000000000 ) ) ;
#120 = PRODUCT ( '10x10 Right Angle Prism Master', '10x10 Right Angle Prism Master', '', ( #178 ) ) ;
#121 =( GEOMETRIC_REPRESENTATION_CONTEXT ( 3 ) GLOBAL_UNCERTAINTY_ASSIGNED_CONTEXT ( ( #62 ) ) GLOBAL_UNIT_ASSIGNED_CONTEXT ( ( #131, #161, #296 ) ) REPRESENTATION_CONTEXT ( 'NONE', 'WORKASPACE' ) );
#122 = DIRECTION ( 'NONE',  ( -1.000000000000000000, 0.000000000000000000, 0.000000000000000000 ) ) ;
#123 = COORDINATED_UNIVERSAL_TIME_OFFSET ( 5, 0, .BEHIND. ) ;
#124 = CARTESIAN_POINT ( 'NONE',  ( 5.000000000000000000, 0.000000000000000000, 7.071067811865514585 ) ) ;
#125 = ORIENTED_EDGE ( 'NONE', *, *, #184, .T. ) ;
#126 = VECTOR ( 'NONE', #146, 999.9999999999998863 ) ;
#127 = APPROVAL_DATE_TIME ( #199, #201 ) ;
#128 = AXIS2_PLACEMENT_3D ( 'NONE', #99, #290, #322 ) ;
#129 = COORDINATED_UNIVERSAL_TIME_OFFSET ( 5, 0, .BEHIND. ) ;
#130 = CARTESIAN_POINT ( 'NONE',  ( -5.000000000000000000, 0.000000000000000000, 7.071067811865514585 ) ) ;
#131 =( LENGTH_UNIT ( ) NAMED_UNIT ( * ) SI_UNIT ( .MILLI., .METRE. ) );
#132 = APPROVAL ( #334, 'UNKNOWN' ) ;
#133 = APPLICATION_CONTEXT ( 'configuration controlled 3d designs of mechanical parts and assemblies' ) ;
#134 = APPROVAL_ROLE ( '' ) ;
#135 = VERTEX_POINT ( 'NONE', #150 ) ;
#136 = PERSON_AND_ORGANIZATION_ROLE ( 'creator' ) ;
#137 = ITEM_DEFINED_TRANSFORMATION ( 'NONE', 'NONE', #128,  #291 ) ;
#138 = CC_DESIGN_PERSON_AND_ORGANIZATION_ASSIGNMENT ( #9, #182, ( #213 ) ) ;
#139 = APPROVAL_PERSON_ORGANIZATION ( #21, #314, #41 ) ;
#140 = VECTOR ( 'NONE', #336, 1000.000000000000114 ) ;
#141 = ORIENTED_EDGE ( 'NONE', *, *, #284, .T. ) ;
#142 = APPROVAL_DATE_TIME ( #176, #227 ) ;
#143 = APPROVAL ( #71, 'UNSPECIFIED' ) ;
#144 = LINE ( 'NONE', #302, #108 ) ;
#145 = PERSON_AND_ORGANIZATION_ROLE ( 'classification_officer' ) ;
#146 = DIRECTION ( 'NONE',  ( 0.000000000000000000, -0.7071067811865435759, 0.7071067811865515695 ) ) ;
#147 = CC_DESIGN_SECURITY_CLASSIFICATION ( #213, ( #89 ) ) ;
#148 = COORDINATED_UNIVERSAL_TIME_OFFSET ( 5, 0, .BEHIND. ) ;
#149 = APPROVAL_DATE_TIME ( #164, #143 ) ;
#150 = CARTESIAN_POINT ( 'NONE',  ( 5.000000000000000000, 7.071067811865434649, -4.801055335612047211E-16 ) ) ;
#151 = DIRECTION ( 'NONE',  ( 0.000000000000000000, 1.000000000000000000, -6.123233995732582608E-17 ) ) ;
#152 = PERSON_AND_ORGANIZATION ( #194, #256 ) ;
#153 = FACE_OUTER_BOUND ( 'NONE', #64, .T. ) ;
#154 = CC_DESIGN_PERSON_AND_ORGANIZATION_ASSIGNMENT ( #232, #326, ( #183 ) ) ;
#155 = COORDINATED_UNIVERSAL_TIME_OFFSET ( 5, 0, .BEHIND. ) ;
#156 = CARTESIAN_POINT ( 'NONE',  ( 0.000000000000000000, 0.000000000000000000, 0.000000000000000000 ) ) ;
#157 = APPLICATION_CONTEXT ( 'configuration controlled 3d designs of mechanical parts and assemblies' ) ;
#158 = CARTESIAN_POINT ( 'NONE',  ( 0.000000000000000000, 0.000000000000000000, 0.000000000000000000 ) ) ;
#159 = SECURITY_CLASSIFICATION_LEVEL ( 'unclassified' ) ;
#160 = ORIENTED_EDGE ( 'NONE', *, *, #226, .T. ) ;
#161 =( NAMED_UNIT ( * ) PLANE_ANGLE_UNIT ( ) SI_UNIT ( $, .RADIAN. ) );
#162 = APPROVAL_STATUS ( 'not_yet_approved' ) ;
#163 = APPROVAL_DATE_TIME ( #212, #132 ) ;
#164 = DATE_AND_TIME ( #107, #358 ) ;
#165 = ORIENTED_EDGE ( 'NONE', *, *, #264, .F. ) ;
#166 = PERSON_AND_ORGANIZATION ( #194, #256 ) ;
#167 = ORIENTED_EDGE ( 'NONE', *, *, #184, .F. ) ;
#168 = CARTESIAN_POINT ( 'NONE',  ( 5.000000000000000000, -8.659560562349064226E-16, -7.071067811865514585 ) ) ;
#169 = APPROVAL_PERSON_ORGANIZATION ( #103, #201, #181 ) ;
#170 = DATE_AND_TIME ( #3, #173 ) ;
#171 = CC_DESIGN_DATE_AND_TIME_ASSIGNMENT ( #325, #204, ( #183 ) ) ;
#172 = PRODUCT ( '10mm BEAMSPLITTER CUBE TS_48880', '10mm BEAMSPLITTER CUBE TS_48880', '', ( #235 ) ) ;
#173 = LOCAL_TIME ( 9, 33, 37.00000000000000000, #224 ) ;
#174 = LINE ( 'NONE', #56, #101 ) ;
#175 = CALENDAR_DATE ( 2021, 20, 9 ) ;
#176 = DATE_AND_TIME ( #307, #85 ) ;
#177 = DIRECTION ( 'NONE',  ( 0.000000000000000000, -6.123233995732582608E-17, -1.000000000000000000 ) ) ;
#178 = MECHANICAL_CONTEXT ( 'NONE', #157, 'mechanical' ) ;
#179 = APPROVAL_STATUS ( 'not_yet_approved' ) ;
#180 = PERSON_AND_ORGANIZATION_ROLE ( 'design_supplier' ) ;
#181 = APPROVAL_ROLE ( '' ) ;
#182 = PERSON_AND_ORGANIZATION_ROLE ( 'classification_officer' ) ;
#183 = PRODUCT_DEFINITION ( 'UNKNOWN', '', #218, #116 ) ;
#184 = EDGE_CURVE ( 'NONE', #33, #55, #52, .T. ) ;
#185 = COORDINATED_UNIVERSAL_TIME_OFFSET ( 5, 0, .BEHIND. ) ;
#186 = SHAPE_DEFINITION_REPRESENTATION ( #96, #231 ) ;
#187 = LINE ( 'NONE', #168, #321 ) ;
#188 = DATE_AND_TIME ( #175, #217 ) ;
#189 = DATE_TIME_ROLE ( 'classification_date' ) ;
#190 = CARTESIAN_POINT ( 'NONE',  ( 5.000000000000000000, -8.659560562349064226E-16, -7.071067811865514585 ) ) ;
#191 = VECTOR ( 'NONE', #8, 1000.000000000000000 ) ;
#192 = LINE ( 'NONE', #112, #126 ) ;
#193 = APPROVAL_PERSON_ORGANIZATION ( #39, #143, #262 ) ;
#194 = PERSON ( 'UNSPECIFIED', 'UNSPECIFIED', 'UNSPECIFIED', ('UNSPECIFIED'), ('UNSPECIFIED'), ('UNSPECIFIED') ) ;
#195 = CARTESIAN_POINT ( 'NONE',  ( 5.000000000000000000, -8.659560562349064226E-16, -7.071067811865514585 ) ) ;
#196 = DIRECTION ( 'NONE',  ( 0.000000000000000000, -0.7071067811865513475, 0.7071067811865436870 ) ) ;
#197 = ORGANIZATION ( 'NAUO-ORG2', 'UNSPECIFIED', 'UNSPECIFIED' ) ;
#198 = CC_DESIGN_PERSON_AND_ORGANIZATION_ASSIGNMENT ( #259, #355, ( #89 ) ) ;
#199 = DATE_AND_TIME ( #35, #206 ) ;
#200 = CALENDAR_DATE ( 2021, 20, 9 ) ;
#201 = APPROVAL ( #263, 'UNSPECIFIED' ) ;
#202 = DATE_TIME_ROLE ( 'classification_date' ) ;
#203 = VERTEX_POINT ( 'NONE', #359 ) ;
#204 = DATE_TIME_ROLE ( 'creation_date' ) ;
#205 = PERSON_AND_ORGANIZATION_ROLE ( 'design_owner' ) ;
#206 = LOCAL_TIME ( 9, 33, 37.00000000000000000, #155 ) ;
#207 = CARTESIAN_POINT ( 'NONE',  ( 0.000000000000000000, 0.000000000000000000, 0.000000000000000000 ) ) ;
#208 = EDGE_LOOP ( 'NONE', ( #342, #34, #281, #47 ) ) ;
#209 = DIRECTION ( 'NONE',  ( -6.162975822039154730E-33, -1.000000000000000000, -1.110223024625156787E-16 ) ) ;
#210 = CC_DESIGN_PERSON_AND_ORGANIZATION_ASSIGNMENT ( #60, #109, ( #309 ) ) ;
#211 = DATE_AND_TIME ( #357, #297 ) ;
#212 = DATE_AND_TIME ( #270, #276 ) ;
#213 = SECURITY_CLASSIFICATION ( '', '', #159 ) ;
#214 = ORIENTED_EDGE ( 'NONE', *, *, #280, .T. ) ;
#215 = DIRECTION ( 'NONE',  ( 0.000000000000000000, 0.000000000000000000, 1.000000000000000000 ) ) ;
#216 = CARTESIAN_POINT ( 'NONE',  ( 5.000000000000000000, 7.071067811865434649, -4.801055335612047211E-16 ) ) ;
#217 = LOCAL_TIME ( 9, 33, 37.00000000000000000, #123 ) ;
#218 = PRODUCT_DEFINITION_FORMATION_WITH_SPECIFIED_SOURCE ( 'ANY', '', #172, .NOT_KNOWN. ) ;
#219 = CARTESIAN_POINT ( 'NONE',  ( -5.000000000000000000, -8.659560562349064226E-16, -7.071067811865514585 ) ) ;
#220 = VECTOR ( 'NONE', #177, 1000.000000000000000 ) ;
#221 = CARTESIAN_POINT ( 'NONE',  ( -5.000000000000000000, 7.071067811865433761, -1.734723475976807094E-15 ) ) ;
#222 = CC_DESIGN_APPROVAL ( #132, ( #309 ) ) ;
#223 = DIRECTION ( 'NONE',  ( 0.000000000000000000, 0.7071067811865435759, 0.7071067811865513475 ) ) ;
#224 = COORDINATED_UNIVERSAL_TIME_OFFSET ( 5, 0, .BEHIND. ) ;
#225 = CARTESIAN_POINT ( 'NONE',  ( 5.000000000000000000, 7.071067811865433761, -1.734723475976807094E-15 ) ) ;
#226 = EDGE_CURVE ( 'NONE', #5, #135, #294, .T. ) ;
#227 = APPROVAL ( #162, 'UNSPECIFIED' ) ;
#228 = CC_DESIGN_APPROVAL ( #143, ( #183 ) ) ;
#229 = CARTESIAN_POINT ( 'NONE',  ( 5.000000000000000000, -8.659560562349064226E-16, -7.071067811865514585 ) ) ;
#230 = ITEM_DEFINED_TRANSFORMATION ( 'NONE', 'NONE', #49,  #291 ) ;
#231 = SHAPE_REPRESENTATION ( '10x10 Right Angle Prism Master', ( #291 ), #79 ) ;
#232 = PERSON_AND_ORGANIZATION ( #194, #256 ) ;
#233 =( LENGTH_UNIT ( ) NAMED_UNIT ( * ) SI_UNIT ( .MILLI., .METRE. ) );
#234 =( NAMED_UNIT ( * ) SI_UNIT ( $, .STERADIAN. ) SOLID_ANGLE_UNIT ( ) );
#235 = MECHANICAL_CONTEXT ( 'NONE', #76, 'mechanical' ) ;
#236 = DATE_TIME_ROLE ( 'creation_date' ) ;
#237 = ADVANCED_FACE ( 'NONE', ( #253 ), #340, .F. ) ;
#238 = APPLICATION_PROTOCOL_DEFINITION ( 'international standard', 'config_control_design', 1994, #353 ) ;
#239 = FACE_OUTER_BOUND ( 'NONE', #288, .T. ) ;
#240 = PRODUCT_RELATED_PRODUCT_CATEGORY ( 'detail', '', ( #120 ) ) ;
#241 = CONTEXT_DEPENDENT_SHAPE_REPRESENTATION ( #102, #304 ) ;
#242 = CC_DESIGN_APPROVAL ( #258, ( #27 ) ) ;
#243 = ORIENTED_EDGE ( 'NONE', *, *, #284, .F. ) ;
#244 = AXIS2_PLACEMENT_3D ( 'NONE', #229, #196, #91 ) ;
#245 = PERSON_AND_ORGANIZATION ( #194, #256 ) ;
#246 = APPROVAL_ROLE ( '' ) ;
#247 = EDGE_CURVE ( 'NONE', #203, #55, #144, .T. ) ;
#248 = COORDINATED_UNIVERSAL_TIME_OFFSET ( 5, 0, .BEHIND. ) ;
#249 =( REPRESENTATION_RELATIONSHIP ('NONE','NONE', #114, #231 ) REPRESENTATION_RELATIONSHIP_WITH_TRANSFORMATION ( #230 )SHAPE_REPRESENTATION_RELATIONSHIP( ) );
#250 = PLANE ( 'NONE',  #7 ) ;
#251 = COORDINATED_UNIVERSAL_TIME_OFFSET ( 5, 0, .BEHIND. ) ;
#252 = ORIENTED_EDGE ( 'NONE', *, *, #350, .F. ) ;
#253 = FACE_OUTER_BOUND ( 'NONE', #354, .T. ) ;
#254 = CC_DESIGN_DATE_AND_TIME_ASSIGNMENT ( #38, #53, ( #305 ) ) ;
#255 = APPROVAL_PERSON_ORGANIZATION ( #267, #59, #19 ) ;
#256 = ORGANIZATION ( 'UNSPECIFIED', 'UNSPECIFIED', '' ) ;
#257 = PRODUCT_DEFINITION_SHAPE ( 'NONE', 'NONE',  #361 ) ;
#258 = APPROVAL ( #72, 'UNSPECIFIED' ) ;
#259 = PERSON_AND_ORGANIZATION ( #194, #256 ) ;
#260 = SECURITY_CLASSIFICATION_LEVEL ( 'unclassified' ) ;
#261 = VECTOR ( 'NONE', #306, 999.9999999999998863 ) ;
#262 = APPROVAL_ROLE ( '' ) ;
#263 = APPROVAL_STATUS ( 'not_yet_approved' ) ;
#264 = EDGE_CURVE ( 'NONE', #5, #84, #187, .T. ) ;
#265 = APPLICATION_PROTOCOL_DEFINITION ( 'international standard', 'config_control_design', 1994, #157 ) ;
#266 = EDGE_LOOP ( 'NONE', ( #11, #165, #243, #16 ) ) ;
#267 = PERSON_AND_ORGANIZATION ( #30, #352 ) ;
#268 = CALENDAR_DATE ( 2021, 20, 9 ) ;
#269 = AXIS2_PLACEMENT_3D ( 'NONE', #124, #151, #67 ) ;
#270 = CALENDAR_DATE ( 2021, 20, 9 ) ;
#271 = SECURITY_CLASSIFICATION_LEVEL ( 'unclassified' ) ;
#272 = ADVANCED_BREP_SHAPE_REPRESENTATION ( '', ( #110, #291 ), #79 ) ;
#273 = CC_DESIGN_PERSON_AND_ORGANIZATION_ASSIGNMENT ( #267, #145, ( #305 ) ) ;
#274 = LINE ( 'NONE', #130, #220 ) ;
#275 = DIRECTION ( 'NONE',  ( 0.000000000000000000, 0.7071067811865435759, -0.7071067811865515695 ) ) ;
#276 = LOCAL_TIME ( 9, 33, 37.00000000000000000, #328 ) ;
#277 = CC_DESIGN_SECURITY_CLASSIFICATION ( #27, ( #218 ) ) ;
#278 = DATE_AND_TIME ( #303, #104 ) ;
#279 = CARTESIAN_POINT ( 'NONE',  ( -5.000000000000000000, 0.000000000000000000, 7.071067811865514585 ) ) ;
#280 = EDGE_CURVE ( 'NONE', #135, #33, #70, .T. ) ;
#281 = ORIENTED_EDGE ( 'NONE', *, *, #226, .F. ) ;
#282 = CLOSED_SHELL ( 'NONE', ( #237, #318, #292, #347, #17 ) ) ;
#283 = PERSON_AND_ORGANIZATION ( #194, #256 ) ;
#284 = EDGE_CURVE ( 'NONE', #203, #5, #174, .T. ) ;
#285 = DIRECTION ( 'NONE',  ( 0.000000000000000000, 0.000000000000000000, 1.000000000000000000 ) ) ;
#286 = CC_DESIGN_DATE_AND_TIME_ASSIGNMENT ( #68, #189, ( #309 ) ) ;
#287 = DATE_AND_TIME ( #2, #65 ) ;
#288 = EDGE_LOOP ( 'NONE', ( #83, #141, #160 ) ) ;
#289 = DIRECTION ( 'NONE',  ( 0.000000000000000000, 0.000000000000000000, 1.000000000000000000 ) ) ;
#290 = DIRECTION ( 'NONE',  ( 0.000000000000000000, 1.000000000000000000, 1.110223024625156540E-16 ) ) ;
#291 = AXIS2_PLACEMENT_3D ( 'NONE', #156, #94, #40 ) ;
#292 = ADVANCED_FACE ( 'NONE', ( #310 ), #90, .F. ) ;
#293 = APPROVAL_STATUS ( 'not_yet_approved' ) ;
#294 = LINE ( 'NONE', #195, #331 ) ;
#295 = SECURITY_CLASSIFICATION_LEVEL ( 'unclassified' ) ;
#296 =( NAMED_UNIT ( * ) SI_UNIT ( $, .STERADIAN. ) SOLID_ANGLE_UNIT ( ) );
#297 = LOCAL_TIME ( 9, 33, 37.00000000000000000, #92 ) ;
#298 = APPROVAL_DATE_TIME ( #170, #258 ) ;
#299 = COORDINATED_UNIVERSAL_TIME_OFFSET ( 5, 0, .BEHIND. ) ;
#300 = ORIENTED_EDGE ( 'NONE', *, *, #247, .F. ) ;
#301 = LOCAL_TIME ( 9, 33, 37.00000000000000000, #248 ) ;
#302 = CARTESIAN_POINT ( 'NONE',  ( 5.000000000000000000, 0.000000000000000000, 7.071067811865514585 ) ) ;
#303 = CALENDAR_DATE ( 2021, 20, 9 ) ;
#304 = PRODUCT_DEFINITION_SHAPE ( 'NONE', 'NONE',  #360 ) ;
#305 = SECURITY_CLASSIFICATION ( '', '', #295 ) ;
#306 = DIRECTION ( 'NONE',  ( 0.000000000000000000, -0.7071067811865435759, 0.7071067811865515695 ) ) ;
#307 = CALENDAR_DATE ( 2021, 20, 9 ) ;
#308 = AXIS2_PLACEMENT_3D ( 'NONE', #207, #289, #42 ) ;
#309 = SECURITY_CLASSIFICATION ( '', '', #271 ) ;
#310 = FACE_OUTER_BOUND ( 'NONE', #208, .T. ) ;
#311 = PLANE ( 'NONE',  #269 ) ;
#312 = APPROVAL_DATE_TIME ( #287, #59 ) ;
#313 = PERSON_AND_ORGANIZATION ( #194, #256 ) ;
#314 = APPROVAL ( #179, 'UNSPECIFIED' ) ;
#315 = CARTESIAN_POINT ( 'NONE',  ( 5.000000000000000000, 7.071067811865434649, -4.801055335612047211E-16 ) ) ;
#316 =( NAMED_UNIT ( * ) PLANE_ANGLE_UNIT ( ) SI_UNIT ( $, .RADIAN. ) );
#317 = PRODUCT_DEFINITION_SHAPE ( 'NONE', 'NONE',  #183 ) ;
#318 = ADVANCED_FACE ( 'NONE', ( #57 ), #311, .F. ) ;
#319 = LOCAL_TIME ( 9, 33, 37.00000000000000000, #36 ) ;
#320 = PERSON_AND_ORGANIZATION_ROLE ( 'classification_officer' ) ;
#321 = VECTOR ( 'NONE', #119, 1000.000000000000000 ) ;
#322 = DIRECTION ( 'NONE',  ( 1.000000000000000000, 0.000000000000000000, 0.000000000000000000 ) ) ;
#323 = APPROVAL_ROLE ( '' ) ;
#324 = APPROVAL_STATUS ( 'not_yet_approved' ) ;
#325 = DATE_AND_TIME ( #200, #319 ) ;
#326 = PERSON_AND_ORGANIZATION_ROLE ( 'creator' ) ;
#327 = CC_DESIGN_APPROVAL ( #59, ( #305 ) ) ;
#328 = COORDINATED_UNIVERSAL_TIME_OFFSET ( 5, 0, .BEHIND. ) ;
#329 = PRODUCT_DEFINITION ( 'UNKNOWN', '', #89, #51 ) ;
#330 = CC_DESIGN_APPROVAL ( #227, ( #329 ) ) ;
#331 = VECTOR ( 'NONE', #223, 1000.000000000000114 ) ;
#332 = CALENDAR_DATE ( 2021, 20, 9 ) ;
#333 = CC_DESIGN_SECURITY_CLASSIFICATION ( #305, ( #360 ) ) ;
#334 = APPROVAL_STATUS ( 'not_yet_approved' ) ;
#335 = CARTESIAN_POINT ( 'NONE',  ( -5.000000000000000000, -8.659560562349064226E-16, -7.071067811865514585 ) ) ;
#336 = DIRECTION ( 'NONE',  ( 0.000000000000000000, 0.7071067811865435759, 0.7071067811865513475 ) ) ;
#337 = CC_DESIGN_PERSON_AND_ORGANIZATION_ASSIGNMENT ( #245, #180, ( #218 ) ) ;
#338 = ORIENTED_EDGE ( 'NONE', *, *, #77, .F. ) ;
#339 = APPROVAL_DATE_TIME ( #211, #29 ) ;
#340 = PLANE ( 'NONE',  #344 ) ;
#341 = SHAPE_DEFINITION_REPRESENTATION ( #317, #114 ) ;
#342 = ORIENTED_EDGE ( 'NONE', *, *, #77, .T. ) ;
#343 = CC_DESIGN_PERSON_AND_ORGANIZATION_ASSIGNMENT ( #346, #18, ( #218 ) ) ;
#344 = AXIS2_PLACEMENT_3D ( 'NONE', #216, #1, #275 ) ;
#345 = DIRECTION ( 'NONE',  ( 0.000000000000000000, -6.123233995732582608E-17, -1.000000000000000000 ) ) ;
#346 = PERSON_AND_ORGANIZATION ( #194, #256 ) ;
#347 = ADVANCED_FACE ( 'NONE', ( #239 ), #32, .F. ) ;
#348 = DIRECTION ( 'NONE',  ( 1.000000000000000000, 0.000000000000000000, 0.000000000000000000 ) ) ;
#349 = DIRECTION ( 'NONE',  ( 0.000000000000000000, 0.000000000000000000, 1.000000000000000000 ) ) ;
#350 = EDGE_CURVE ( 'NONE', #55, #84, #274, .T. ) ;
#351 = CC_DESIGN_PERSON_AND_ORGANIZATION_ASSIGNMENT ( #152, #12, ( #329 ) ) ;
#352 = ORGANIZATION ( 'NAUO-ORG1', 'UNSPECIFIED', 'UNSPECIFIED' ) ;
#353 = APPLICATION_CONTEXT ( 'configuration controlled 3d designs of mechanical parts and assemblies' ) ;
#354 = EDGE_LOOP ( 'NONE', ( #125, #300, #6, #214 ) ) ;
#355 = PERSON_AND_ORGANIZATION_ROLE ( 'design_supplier' ) ;
#356 = CC_DESIGN_APPROVAL ( #314, ( #218 ) ) ;
#357 = CALENDAR_DATE ( 2021, 20, 9 ) ;
#358 = LOCAL_TIME ( 9, 33, 37.00000000000000000, #129 ) ;
#359 = CARTESIAN_POINT ( 'NONE',  ( 5.000000000000000000, 0.000000000000000000, 7.071067811865514585 ) ) ;
#360 = NEXT_ASSEMBLY_USAGE_OCCURRENCE ( 'NAUO1', ' ', ' ', #183, #329, $ ) ;
#361 = NEXT_ASSEMBLY_USAGE_OCCURRENCE ( 'NAUO2', ' ', ' ', #183, #329, $ ) ;
ENDSEC;
END-ISO-10303-21;
