ISO-10303-21;
HEADER;
FILE_DESCRIPTION (( 'STEP AP214' ),
    '1' );
FILE_NAME ('4855-E0W.STEP',
    '2009-12-21T17:15:28',
    ( ' ' ),
    ( ' ' ),
    'SwSTEP 2.0',
    'SolidWorks 2009',
    '' );
FILE_SCHEMA (( 'AUTOMOTIVE_DESIGN' ));
ENDSEC;

DATA;
#1 = EDGE_CURVE ( 'NONE', #74, #71, #85, .T. ) ;
#2 = ADVANCED_FACE ( 'NONE', ( #91 ), #102, .T. ) ;
#3 = ORIENTED_EDGE ( 'NONE', *, *, #13, .F. ) ;
#4 = EDGE_CURVE ( 'NONE', #60, #8, #96, .T. ) ;
#5 = ORIENTED_EDGE ( 'NONE', *, *, #1, .T. ) ;
#6 = EDGE_CURVE ( 'NONE', #16, #27, #105, .T. ) ;
#7 = ORIENTED_EDGE ( 'NONE', *, *, #26, .F. ) ;
#8 = VERTEX_POINT ( 'NONE', #131 ) ;
#9 = ORIENTED_EDGE ( 'NONE', *, *, #4, .T. ) ;
#10 = ORIENTED_EDGE ( 'NONE', *, *, #1, .F. ) ;
#11 = ORIENTED_EDGE ( 'NONE', *, *, #15, .T. ) ;
#12 = EDGE_LOOP ( 'NONE', ( #9, #25, #18, #7 ) ) ;
#13 = EDGE_CURVE ( 'NONE', #74, #66, #108, .T. ) ;
#14 = ORIENTED_EDGE ( 'NONE', *, *, #4, .F. ) ;
#15 = EDGE_CURVE ( 'NONE', #65, #8, #114, .T. ) ;
#16 = VERTEX_POINT ( 'NONE', #112 ) ;
#17 = ORIENTED_EDGE ( 'NONE', *, *, #57, .F. ) ;
#18 = ORIENTED_EDGE ( 'NONE', *, *, #6, .T. ) ;
#19 = EDGE_LOOP ( 'NONE', ( #64, #72, #69, #10 ) ) ;
#20 = EDGE_CURVE ( 'NONE', #8, #16, #130, .T. ) ;
#21 = ORIENTED_EDGE ( 'NONE', *, *, #57, .T. ) ;
#22 = ADVANCED_FACE ( 'NONE', ( #128 ), #138, .T. ) ;
#23 = ADVANCED_FACE ( 'NONE', ( #185 ), #141, .F. ) ;
#24 = MANIFOLD_SOLID_BREP ( 'NONE', #48 ) ;
#25 = ORIENTED_EDGE ( 'NONE', *, *, #20, .T. ) ;
#26 = EDGE_CURVE ( 'NONE', #60, #27, #164, .T. ) ;
#27 = VERTEX_POINT ( 'NONE', #159 ) ;
#28 = ORIENTED_EDGE ( 'NONE', *, *, #13, .T. ) ;
#29 = ADVANCED_FACE ( 'NONE', ( #158 ), #177, .F. ) ;
#30 = ORIENTED_EDGE ( 'NONE', *, *, #36, .F. ) ;
#31 = EDGE_LOOP ( 'NONE', ( #44, #41, #35, #28, #43, #32 ) ) ;
#32 = ORIENTED_EDGE ( 'NONE', *, *, #20, .F. ) ;
#33 = ORIENTED_EDGE ( 'NONE', *, *, #6, .F. ) ;
#34 = ORIENTED_EDGE ( 'NONE', *, *, #70, .T. ) ;
#35 = ORIENTED_EDGE ( 'NONE', *, *, #63, .T. ) ;
#36 = EDGE_CURVE ( 'NONE', #65, #73, #176, .T. ) ;
#37 =( NAMED_UNIT ( * ) SI_UNIT ( $, .STERADIAN. ) SOLID_ANGLE_UNIT ( ) );
#38 = ORIENTED_EDGE ( 'NONE', *, *, #67, .F. ) ;
#39 = EDGE_LOOP ( 'NONE', ( #38, #30, #49, #34 ) ) ;
#40 = ORIENTED_EDGE ( 'NONE', *, *, #42, .T. ) ;
#41 = ORIENTED_EDGE ( 'NONE', *, *, #36, .T. ) ;
#42 = EDGE_CURVE ( 'NONE', #16, #66, #166, .T. ) ;
#43 = ORIENTED_EDGE ( 'NONE', *, *, #42, .F. ) ;
#44 = ORIENTED_EDGE ( 'NONE', *, *, #15, .F. ) ;
#45 = ORIENTED_EDGE ( 'NONE', *, *, #26, .T. ) ;
#46 = ADVANCED_FACE ( 'NONE', ( #167 ), #248, .T. ) ;
#47 = EDGE_LOOP ( 'NONE', ( #33, #40, #21, #45 ) ) ;
#48 = CLOSED_SHELL ( 'NONE', ( #23, #58, #2, #22, #46, #29 ) ) ;
#49 = ORIENTED_EDGE ( 'NONE', *, *, #62, .F. ) ;
#50 =( GEOMETRIC_REPRESENTATION_CONTEXT ( 3 ) GLOBAL_UNCERTAINTY_ASSIGNED_CONTEXT ( ( #55 ) ) GLOBAL_UNIT_ASSIGNED_CONTEXT ( ( #81, #80, #37 ) ) REPRESENTATION_CONTEXT ( 'NONE', 'WORKASPACE' ) );
#51 = DIRECTION ( 'NONE',  ( -1.224606353822377300E-016, -1.000000000000000000, 0.0000000000000000000 ) ) ;
#52 =( NAMED_UNIT ( * ) SI_UNIT ( $, .STERADIAN. ) SOLID_ANGLE_UNIT ( ) );
#53 =( LENGTH_UNIT ( ) NAMED_UNIT ( * ) SI_UNIT ( .MILLI., .METRE. ) );
#54 = MECHANICAL_DESIGN_GEOMETRIC_PRESENTATION_REPRESENTATION (  '', ( #116 ), #133 ) ;
#55 = UNCERTAINTY_MEASURE_WITH_UNIT (LENGTH_MEASURE( 1.000000000000000100E-005 ), #81, 'distance_accuracy_value', 'NONE');
#56 =( NAMED_UNIT ( * ) PLANE_ANGLE_UNIT ( ) SI_UNIT ( $, .RADIAN. ) );
#57 = EDGE_CURVE ( 'NONE', #66, #60, #314, .T. ) ;
#58 = ADVANCED_FACE ( 'NONE', ( #307 ), #310, .T. ) ;
#59 = EDGE_LOOP ( 'NONE', ( #5, #61, #11, #14, #17, #3 ) ) ;
#60 = VERTEX_POINT ( 'NONE', #303 ) ;
#61 = ORIENTED_EDGE ( 'NONE', *, *, #62, .T. ) ;
#62 = EDGE_CURVE ( 'NONE', #71, #65, #299, .T. ) ;
#63 = EDGE_CURVE ( 'NONE', #73, #74, #294, .T. ) ;
#64 = ORIENTED_EDGE ( 'NONE', *, *, #63, .F. ) ;
#65 = VERTEX_POINT ( 'NONE', #290 ) ;
#66 = VERTEX_POINT ( 'NONE', #289 ) ;
#67 = EDGE_CURVE ( 'NONE', #73, #68, #288, .T. ) ;
#68 = VERTEX_POINT ( 'NONE', #283 ) ;
#69 = ORIENTED_EDGE ( 'NONE', *, *, #70, .F. ) ;
#70 = EDGE_CURVE ( 'NONE', #71, #68, #282, .T. ) ;
#71 = VERTEX_POINT ( 'NONE', #277 ) ;
#72 = ORIENTED_EDGE ( 'NONE', *, *, #67, .T. ) ;
#73 = VERTEX_POINT ( 'NONE', #276 ) ;
#74 = VERTEX_POINT ( 'NONE', #275 ) ;
#75 = AXIS2_PLACEMENT_3D ( 'NONE', #83, #79, #86 ) ;
#76 = PRESENTATION_LAYER_ASSIGNMENT (  '', '', ( #77 ) ) ;
#77 = STYLED_ITEM ( 'NONE', ( #78 ), #2 ) ;
#78 = PRESENTATION_STYLE_ASSIGNMENT (( #87 ) ) ;
#79 = DIRECTION ( 'NONE',  ( -0.0000000000000000000, -0.0000000000000000000, 1.000000000000000000 ) ) ;
#80 =( NAMED_UNIT ( * ) PLANE_ANGLE_UNIT ( ) SI_UNIT ( $, .RADIAN. ) );
#81 =( LENGTH_UNIT ( ) NAMED_UNIT ( * ) SI_UNIT ( .MILLI., .METRE. ) );
#82 = MECHANICAL_DESIGN_GEOMETRIC_PRESENTATION_REPRESENTATION (  '', ( #77 ), #50 ) ;
#83 = CARTESIAN_POINT ( 'NONE',  ( 0.0000000000000000000, 0.0000000000000000000, -1.399979508198180500 ) ) ;
#84 = COLOUR_RGB ( '',0.9568627450980391500, 0.9490196078431372100, 0.9607843137254902200 ) ;
#85 = CIRCLE ( 'NONE', #75, 12.69999999999999900 ) ;
#86 = DIRECTION ( 'NONE',  ( 1.000000000000000000, 0.0000000000000000000, 0.0000000000000000000 ) ) ;
#87 = SURFACE_STYLE_USAGE ( .BOTH. , #88 ) ;
#88 = SURFACE_SIDE_STYLE ('',( #89 ) ) ;
#89 = SURFACE_STYLE_FILL_AREA ( #90 ) ;
#90 = FILL_AREA_STYLE ('',( #92 ) ) ;
#91 = FACE_OUTER_BOUND ( 'NONE', #12, .T. ) ;
#92 = FILL_AREA_STYLE_COLOUR ( '', #84 ) ;
#93 = DIRECTION ( 'NONE',  ( -0.0000000000000000000, -0.0000000000000000000, 1.000000000000000000 ) ) ;
#94 = CARTESIAN_POINT ( 'NONE',  ( 0.0000000000000000000, 0.0000000000000000000, 0.5974517512316677200 ) ) ;
#95 = AXIS2_PLACEMENT_3D ( 'NONE', #94, #93, #107 ) ;
#96 = CIRCLE ( 'NONE', #95, 12.70000000000000100 ) ;
#97 = CARTESIAN_POINT ( 'NONE',  ( 0.0000000000000000000, 0.0000000000000000000, -99.49002049180182900 ) ) ;
#98 = DIRECTION ( 'NONE',  ( 0.0000000000000000000, 1.000000000000000000, 0.0000000000000000000 ) ) ;
#99 = DIRECTION ( 'NONE',  ( -1.000000000000000000, 0.0000000000000000000, 0.0000000000000000000 ) ) ;
#100 = AXIS2_PLACEMENT_3D ( 'NONE', #101, #99, #98 ) ;
#101 = CARTESIAN_POINT ( 'NONE',  ( 0.0000000000000000000, 0.0000000000000000000, -99.49002049180182900 ) ) ;
#102 = SPHERICAL_SURFACE ( 'NONE', #100, 100.8900000000000000 ) ;
#103 = DIRECTION ( 'NONE',  ( -1.000000000000000000, 1.224606353822377300E-016, 0.0000000000000000000 ) ) ;
#104 = AXIS2_PLACEMENT_3D ( 'NONE', #97, #103, #51 ) ;
#105 = CIRCLE ( 'NONE', #104, 100.8900000000000000 ) ;
#106 = UNCERTAINTY_MEASURE_WITH_UNIT (LENGTH_MEASURE( 1.000000000000000100E-005 ), #53, 'distance_accuracy_value', 'NONE');
#107 = DIRECTION ( 'NONE',  ( 1.000000000000000000, 0.0000000000000000000, 0.0000000000000000000 ) ) ;
#108 = LINE ( 'NONE', #132, #110 ) ;
#109 = DIRECTION ( 'NONE',  ( -0.0000000000000000000, -0.0000000000000000000, 1.000000000000000000 ) ) ;
#110 = VECTOR ( 'NONE', #109, 1000.000000000000000 ) ;
#111 = VECTOR ( 'NONE', #129, 1000.000000000000000 ) ;
#112 = CARTESIAN_POINT ( 'NONE',  ( -1.555250069354418300E-015, -12.69999999999999200, 0.5974517512316633900 ) ) ;
#113 = CARTESIAN_POINT ( 'NONE',  ( -12.69999999999999900, 1.555250069354419100E-015, 9.045083263039238400 ) ) ;
#114 = LINE ( 'NONE', #113, #111 ) ;
#115 = PRESENTATION_LAYER_ASSIGNMENT (  '', '', ( #116 ) ) ;
#116 = STYLED_ITEM ( 'NONE', ( #117 ), #22 ) ;
#117 = PRESENTATION_STYLE_ASSIGNMENT (( #118 ) ) ;
#118 = SURFACE_STYLE_USAGE ( .BOTH. , #119 ) ;
#119 = SURFACE_SIDE_STYLE ('',( #120 ) ) ;
#120 = SURFACE_STYLE_FILL_AREA ( #121 ) ;
#121 = FILL_AREA_STYLE ('',( #122 ) ) ;
#122 = FILL_AREA_STYLE_COLOUR ( '', #123 ) ;
#123 = COLOUR_RGB ( '',0.9568627450980391500, 0.9490196078431372100, 0.9607843137254902200 ) ;
#124 = DIRECTION ( 'NONE',  ( 1.000000000000000000, 0.0000000000000000000, 0.0000000000000000000 ) ) ;
#125 = DIRECTION ( 'NONE',  ( -0.0000000000000000000, -0.0000000000000000000, 1.000000000000000000 ) ) ;
#126 = CARTESIAN_POINT ( 'NONE',  ( 0.0000000000000000000, 0.0000000000000000000, 0.5974517512316677200 ) ) ;
#127 = AXIS2_PLACEMENT_3D ( 'NONE', #126, #125, #124 ) ;
#128 = FACE_OUTER_BOUND ( 'NONE', #47, .T. ) ;
#129 = DIRECTION ( 'NONE',  ( -0.0000000000000000000, -0.0000000000000000000, 1.000000000000000000 ) ) ;
#130 = CIRCLE ( 'NONE', #127, 12.70000000000000100 ) ;
#131 = CARTESIAN_POINT ( 'NONE',  ( -12.70000000000000300, 1.555250069354419500E-015, 0.5974517512316677200 ) ) ;
#132 = CARTESIAN_POINT ( 'NONE',  ( 12.69999999999999900, 0.0000000000000000000, 9.045083263039238400 ) ) ;
#133 =( GEOMETRIC_REPRESENTATION_CONTEXT ( 3 ) GLOBAL_UNCERTAINTY_ASSIGNED_CONTEXT ( ( #106 ) ) GLOBAL_UNIT_ASSIGNED_CONTEXT ( ( #53, #56, #52 ) ) REPRESENTATION_CONTEXT ( 'NONE', 'WORKASPACE' ) );
#134 = DIRECTION ( 'NONE',  ( 0.0000000000000000000, 1.000000000000000000, 0.0000000000000000000 ) ) ;
#135 = DIRECTION ( 'NONE',  ( -1.000000000000000000, 0.0000000000000000000, 0.0000000000000000000 ) ) ;
#136 = CARTESIAN_POINT ( 'NONE',  ( 0.0000000000000000000, 0.0000000000000000000, -99.49002049180182900 ) ) ;
#137 = AXIS2_PLACEMENT_3D ( 'NONE', #136, #135, #134 ) ;
#138 = SPHERICAL_SURFACE ( 'NONE', #137, 100.8900000000000000 ) ;
#139 = PRESENTATION_LAYER_ASSIGNMENT (  '', '', ( #140 ) ) ;
#140 = STYLED_ITEM ( 'NONE', ( #187 ), #23 ) ;
#141 = SPHERICAL_SURFACE ( 'NONE', #143, 288.1999999999999900 ) ;
#142 = CARTESIAN_POINT ( 'NONE',  ( 0.0000000000000000000, 0.0000000000000000000, -289.3200204918018100 ) ) ;
#143 = AXIS2_PLACEMENT_3D ( 'NONE', #142, #222, #149 ) ;
#144 = COLOUR_RGB ( '',0.7960784313725489700, 0.8235294117647058400, 0.9372549019607843100 ) ;
#145 = STYLED_ITEM ( 'NONE', ( #146 ), #24 ) ;
#146 = PRESENTATION_STYLE_ASSIGNMENT (( #147 ) ) ;
#147 = SURFACE_STYLE_USAGE ( .BOTH. , #148 ) ;
#148 = SURFACE_SIDE_STYLE ('',( #150 ) ) ;
#149 = DIRECTION ( 'NONE',  ( 0.0000000000000000000, 1.000000000000000000, 0.0000000000000000000 ) ) ;
#150 = SURFACE_STYLE_FILL_AREA ( #151 ) ;
#151 = FILL_AREA_STYLE ('',( #152 ) ) ;
#152 = FILL_AREA_STYLE_COLOUR ( '', #144 ) ;
#153 = COLOUR_RGB ( '',0.9568627450980391500, 0.9490196078431372100, 0.9607843137254902200 ) ;
#154 = SURFACE_STYLE_FILL_AREA ( #155 ) ;
#155 = FILL_AREA_STYLE ('',( #156 ) ) ;
#156 = FILL_AREA_STYLE_COLOUR ( '', #157 ) ;
#157 = COLOUR_RGB ( '',0.9568627450980391500, 0.9490196078431372100, 0.9607843137254902200 ) ;
#158 = FACE_OUTER_BOUND ( 'NONE', #39, .T. ) ;
#159 = CARTESIAN_POINT ( 'NONE',  ( 0.0000000000000000000, 6.177526751856982300E-015, 1.399979508198173600 ) ) ;
#160 = DIRECTION ( 'NONE',  ( 0.0000000000000000000, 0.0000000000000000000, -1.000000000000000000 ) ) ;
#161 = DIRECTION ( 'NONE',  ( 1.000000000000000000, 0.0000000000000000000, 0.0000000000000000000 ) ) ;
#162 = CARTESIAN_POINT ( 'NONE',  ( 0.0000000000000000000, 0.0000000000000000000, -99.49002049180182900 ) ) ;
#163 = AXIS2_PLACEMENT_3D ( 'NONE', #162, #161, #160 ) ;
#164 = CIRCLE ( 'NONE', #163, 100.8900000000000000 ) ;
#165 = AXIS2_PLACEMENT_3D ( 'NONE', #219, #218, #217 ) ;
#166 = CIRCLE ( 'NONE', #165, 12.70000000000000100 ) ;
#167 = FACE_OUTER_BOUND ( 'NONE', #31, .T. ) ;
#168 = DIRECTION ( 'NONE',  ( 1.000000000000000000, 0.0000000000000000000, 0.0000000000000000000 ) ) ;
#169 = DIRECTION ( 'NONE',  ( -0.0000000000000000000, -0.0000000000000000000, 1.000000000000000000 ) ) ;
#170 = CARTESIAN_POINT ( 'NONE',  ( 0.0000000000000000000, 0.0000000000000000000, -1.399979508198180500 ) ) ;
#171 = AXIS2_PLACEMENT_3D ( 'NONE', #170, #169, #168 ) ;
#172 = DIRECTION ( 'NONE',  ( 0.0000000000000000000, 1.000000000000000000, 0.0000000000000000000 ) ) ;
#173 = DIRECTION ( 'NONE',  ( -1.000000000000000000, 0.0000000000000000000, 0.0000000000000000000 ) ) ;
#174 = CARTESIAN_POINT ( 'NONE',  ( 0.0000000000000000000, 0.0000000000000000000, -289.3200204918018100 ) ) ;
#175 = AXIS2_PLACEMENT_3D ( 'NONE', #174, #173, #172 ) ;
#176 = CIRCLE ( 'NONE', #171, 12.69999999999999900 ) ;
#177 = SPHERICAL_SURFACE ( 'NONE', #175, 288.1999999999999900 ) ;
#178 =( GEOMETRIC_REPRESENTATION_CONTEXT ( 3 ) GLOBAL_UNCERTAINTY_ASSIGNED_CONTEXT ( ( #179 ) ) GLOBAL_UNIT_ASSIGNED_CONTEXT ( ( #195, #194, #180 ) ) REPRESENTATION_CONTEXT ( 'NONE', 'WORKASPACE' ) );
#179 = UNCERTAINTY_MEASURE_WITH_UNIT (LENGTH_MEASURE( 1.000000000000000100E-005 ), #195, 'distance_accuracy_value', 'NONE');
#180 =( NAMED_UNIT ( * ) SI_UNIT ( $, .STERADIAN. ) SOLID_ANGLE_UNIT ( ) );
#181 =( NAMED_UNIT ( * ) PLANE_ANGLE_UNIT ( ) SI_UNIT ( $, .RADIAN. ) );
#182 = UNCERTAINTY_MEASURE_WITH_UNIT (LENGTH_MEASURE( 1.000000000000000100E-005 ), #191, 'distance_accuracy_value', 'NONE');
#183 =( NAMED_UNIT ( * ) SI_UNIT ( $, .STERADIAN. ) SOLID_ANGLE_UNIT ( ) );
#184 =( NAMED_UNIT ( * ) PLANE_ANGLE_UNIT ( ) SI_UNIT ( $, .RADIAN. ) );
#185 = FACE_OUTER_BOUND ( 'NONE', #19, .T. ) ;
#186 =( GEOMETRIC_REPRESENTATION_CONTEXT ( 3 ) GLOBAL_UNCERTAINTY_ASSIGNED_CONTEXT ( ( #182 ) ) GLOBAL_UNIT_ASSIGNED_CONTEXT ( ( #191, #184, #183 ) ) REPRESENTATION_CONTEXT ( 'NONE', 'WORKASPACE' ) );
#187 = PRESENTATION_STYLE_ASSIGNMENT (( #188 ) ) ;
#188 = SURFACE_STYLE_USAGE ( .BOTH. , #189 ) ;
#189 = SURFACE_SIDE_STYLE ('',( #225 ) ) ;
#190 = MECHANICAL_DESIGN_GEOMETRIC_PRESENTATION_REPRESENTATION (  '', ( #140 ), #223 ) ;
#191 =( LENGTH_UNIT ( ) NAMED_UNIT ( * ) SI_UNIT ( .MILLI., .METRE. ) );
#192 = MECHANICAL_DESIGN_GEOMETRIC_PRESENTATION_REPRESENTATION (  '', ( #145 ), #186 ) ;
#193 = PRESENTATION_LAYER_ASSIGNMENT (  '', '', ( #145 ) ) ;
#194 =( NAMED_UNIT ( * ) PLANE_ANGLE_UNIT ( ) SI_UNIT ( $, .RADIAN. ) );
#195 =( LENGTH_UNIT ( ) NAMED_UNIT ( * ) SI_UNIT ( .MILLI., .METRE. ) );
#196 = MECHANICAL_DESIGN_GEOMETRIC_PRESENTATION_REPRESENTATION (  '', ( #198 ), #178 ) ;
#197 = PRESENTATION_LAYER_ASSIGNMENT (  '', '', ( #198 ) ) ;
#198 = STYLED_ITEM ( 'NONE', ( #199 ), #29 ) ;
#199 = PRESENTATION_STYLE_ASSIGNMENT (( #200 ) ) ;
#200 = SURFACE_STYLE_USAGE ( .BOTH. , #201 ) ;
#201 = SURFACE_SIDE_STYLE ('',( #154 ) ) ;
#202 =( GEOMETRIC_REPRESENTATION_CONTEXT ( 3 ) GLOBAL_UNCERTAINTY_ASSIGNED_CONTEXT ( ( #203 ) ) GLOBAL_UNIT_ASSIGNED_CONTEXT ( ( #206, #205, #204 ) ) REPRESENTATION_CONTEXT ( 'NONE', 'WORKASPACE' ) );
#203 = UNCERTAINTY_MEASURE_WITH_UNIT (LENGTH_MEASURE( 1.000000000000000100E-005 ), #206, 'distance_accuracy_value', 'NONE');
#204 =( NAMED_UNIT ( * ) SI_UNIT ( $, .STERADIAN. ) SOLID_ANGLE_UNIT ( ) );
#205 =( NAMED_UNIT ( * ) PLANE_ANGLE_UNIT ( ) SI_UNIT ( $, .RADIAN. ) );
#206 =( LENGTH_UNIT ( ) NAMED_UNIT ( * ) SI_UNIT ( .MILLI., .METRE. ) );
#207 = MECHANICAL_DESIGN_GEOMETRIC_PRESENTATION_REPRESENTATION (  '', ( #209 ), #202 ) ;
#208 = PRESENTATION_LAYER_ASSIGNMENT (  '', '', ( #209 ) ) ;
#209 = STYLED_ITEM ( 'NONE', ( #210 ), #46 ) ;
#210 = PRESENTATION_STYLE_ASSIGNMENT (( #211 ) ) ;
#211 = SURFACE_STYLE_USAGE ( .BOTH. , #212 ) ;
#212 = SURFACE_SIDE_STYLE ('',( #213 ) ) ;
#213 = SURFACE_STYLE_FILL_AREA ( #214 ) ;
#214 = FILL_AREA_STYLE ('',( #215 ) ) ;
#215 = FILL_AREA_STYLE_COLOUR ( '', #216 ) ;
#216 = COLOUR_RGB ( '',0.9568627450980391500, 0.9490196078431372100, 0.9607843137254902200 ) ;
#217 = DIRECTION ( 'NONE',  ( 1.000000000000000000, 0.0000000000000000000, 0.0000000000000000000 ) ) ;
#218 = DIRECTION ( 'NONE',  ( -0.0000000000000000000, -0.0000000000000000000, 1.000000000000000000 ) ) ;
#219 = CARTESIAN_POINT ( 'NONE',  ( 0.0000000000000000000, 0.0000000000000000000, 0.5974517512316677200 ) ) ;
#220 =( NAMED_UNIT ( * ) SI_UNIT ( $, .STERADIAN. ) SOLID_ANGLE_UNIT ( ) );
#221 = UNCERTAINTY_MEASURE_WITH_UNIT (LENGTH_MEASURE( 1.000000000000000100E-005 ), #224, 'distance_accuracy_value', 'NONE');
#222 = DIRECTION ( 'NONE',  ( -1.000000000000000000, 0.0000000000000000000, 0.0000000000000000000 ) ) ;
#223 =( GEOMETRIC_REPRESENTATION_CONTEXT ( 3 ) GLOBAL_UNCERTAINTY_ASSIGNED_CONTEXT ( ( #221 ) ) GLOBAL_UNIT_ASSIGNED_CONTEXT ( ( #224, #181, #220 ) ) REPRESENTATION_CONTEXT ( 'NONE', 'WORKASPACE' ) );
#224 =( LENGTH_UNIT ( ) NAMED_UNIT ( * ) SI_UNIT ( .MILLI., .METRE. ) );
#225 = SURFACE_STYLE_FILL_AREA ( #226 ) ;
#226 = FILL_AREA_STYLE ('',( #227 ) ) ;
#227 = FILL_AREA_STYLE_COLOUR ( '', #153 ) ;
#228 = AXIS2_PLACEMENT_3D ( 'NONE', #318, #317, #316 ) ;
#229 = PRODUCT_DEFINITION_SHAPE ( 'NONE', 'NONE',  #232 ) ;
#230 = PRODUCT_RELATED_PRODUCT_CATEGORY ( 'part', '', ( #236 ) ) ;
#231 = PRODUCT_DEFINITION_FORMATION_WITH_SPECIFIED_SOURCE ( 'ANY', '', #236, .NOT_KNOWN. ) ;
#232 = PRODUCT_DEFINITION ( 'UNKNOWN', '', #231, #233 ) ;
#233 = PRODUCT_DEFINITION_CONTEXT ( 'detailed design', #235, 'design' ) ;
#234 = APPLICATION_PROTOCOL_DEFINITION ( 'draft international standard', 'automotive_design', 1998, #235 ) ;
#235 = APPLICATION_CONTEXT ( 'automotive_design' ) ;
#236 = PRODUCT ( '4855-E0W', '4855-E0W', '', ( #237 ) ) ;
#237 = PRODUCT_CONTEXT ( 'NONE', #240, 'mechanical' ) ;
#238 = APPLICATION_PROTOCOL_DEFINITION ( 'draft international standard', 'automotive_design', 1998, #240 ) ;
#239 = COLOUR_RGB ( '',0.7960784313725489700, 0.8235294117647058400, 0.9372549019607843100 ) ;
#240 = APPLICATION_CONTEXT ( 'automotive_design' ) ;
#241 = SHAPE_DEFINITION_REPRESENTATION ( #229, #242 ) ;
#242 = ADVANCED_BREP_SHAPE_REPRESENTATION ( '4855-E0W', ( #24, #259 ), #243 ) ;
#243 =( GEOMETRIC_REPRESENTATION_CONTEXT ( 3 ) GLOBAL_UNCERTAINTY_ASSIGNED_CONTEXT ( ( #319 ) ) GLOBAL_UNIT_ASSIGNED_CONTEXT ( ( #322, #321, #320 ) ) REPRESENTATION_CONTEXT ( 'NONE', 'WORKASPACE' ) );
#244 = UNCERTAINTY_MEASURE_WITH_UNIT (LENGTH_MEASURE( 1.000000000000000100E-005 ), #245, 'distance_accuracy_value', 'NONE');
#245 =( LENGTH_UNIT ( ) NAMED_UNIT ( * ) SI_UNIT ( .MILLI., .METRE. ) );
#246 = MECHANICAL_DESIGN_GEOMETRIC_PRESENTATION_REPRESENTATION (  '', ( #249 ), #311 ) ;
#247 = PRESENTATION_LAYER_ASSIGNMENT (  '', '', ( #249 ) ) ;
#248 = CYLINDRICAL_SURFACE ( 'NONE', #228, 12.69999999999999900 ) ;
#249 = STYLED_ITEM ( 'NONE', ( #250 ), #58 ) ;
#250 = PRESENTATION_STYLE_ASSIGNMENT (( #251 ) ) ;
#251 = SURFACE_STYLE_USAGE ( .BOTH. , #252 ) ;
#252 = SURFACE_SIDE_STYLE ('',( #253 ) ) ;
#253 = SURFACE_STYLE_FILL_AREA ( #254 ) ;
#254 = FILL_AREA_STYLE ('',( #255 ) ) ;
#255 = FILL_AREA_STYLE_COLOUR ( '', #256 ) ;
#256 = COLOUR_RGB ( '',0.9568627450980391500, 0.9490196078431372100, 0.9607843137254902200 ) ;
#257 = DIRECTION ( 'NONE',  ( 1.000000000000000000, 0.0000000000000000000, 0.0000000000000000000 ) ) ;
#258 = DIRECTION ( 'NONE',  ( 0.0000000000000000000, 0.0000000000000000000, 1.000000000000000000 ) ) ;
#259 = AXIS2_PLACEMENT_3D ( 'NONE', #274, #258, #257 ) ;
#260 =( GEOMETRIC_REPRESENTATION_CONTEXT ( 3 ) GLOBAL_UNCERTAINTY_ASSIGNED_CONTEXT ( ( #261 ) ) GLOBAL_UNIT_ASSIGNED_CONTEXT ( ( #264, #263, #262 ) ) REPRESENTATION_CONTEXT ( 'NONE', 'WORKASPACE' ) );
#261 = UNCERTAINTY_MEASURE_WITH_UNIT (LENGTH_MEASURE( 1.000000000000000100E-005 ), #264, 'distance_accuracy_value', 'NONE');
#262 =( NAMED_UNIT ( * ) SI_UNIT ( $, .STERADIAN. ) SOLID_ANGLE_UNIT ( ) );
#263 =( NAMED_UNIT ( * ) PLANE_ANGLE_UNIT ( ) SI_UNIT ( $, .RADIAN. ) );
#264 =( LENGTH_UNIT ( ) NAMED_UNIT ( * ) SI_UNIT ( .MILLI., .METRE. ) );
#265 = MECHANICAL_DESIGN_GEOMETRIC_PRESENTATION_REPRESENTATION (  '', ( #267 ), #260 ) ;
#266 = PRESENTATION_LAYER_ASSIGNMENT (  '', '', ( #267 ) ) ;
#267 = STYLED_ITEM ( 'NONE', ( #268 ), #242 ) ;
#268 = PRESENTATION_STYLE_ASSIGNMENT (( #269 ) ) ;
#269 = SURFACE_STYLE_USAGE ( .BOTH. , #270 ) ;
#270 = SURFACE_SIDE_STYLE ('',( #271 ) ) ;
#271 = SURFACE_STYLE_FILL_AREA ( #272 ) ;
#272 = FILL_AREA_STYLE ('',( #273 ) ) ;
#273 = FILL_AREA_STYLE_COLOUR ( '', #239 ) ;
#274 = CARTESIAN_POINT ( 'NONE',  ( 0.0000000000000000000, 0.0000000000000000000, 0.0000000000000000000 ) ) ;
#275 = CARTESIAN_POINT ( 'NONE',  ( 12.69999999999999900, 0.0000000000000000000, -1.399979508198180500 ) ) ;
#276 = CARTESIAN_POINT ( 'NONE',  ( -1.555250069354439400E-015, -12.70000000000016600, -1.399979508198190900 ) ) ;
#277 = CARTESIAN_POINT ( 'NONE',  ( 0.0000000000000000000, 12.70000000000016600, -1.399979508198190900 ) ) ;
#278 = DIRECTION ( 'NONE',  ( 0.0000000000000000000, 0.0000000000000000000, -1.000000000000000000 ) ) ;
#279 = DIRECTION ( 'NONE',  ( 1.000000000000000000, -0.0000000000000000000, 0.0000000000000000000 ) ) ;
#280 = CARTESIAN_POINT ( 'NONE',  ( 0.0000000000000000000, 0.0000000000000000000, -289.3200204918018100 ) ) ;
#281 = AXIS2_PLACEMENT_3D ( 'NONE', #280, #279, #278 ) ;
#282 = CIRCLE ( 'NONE', #281, 288.1999999999999900 ) ;
#283 = CARTESIAN_POINT ( 'NONE',  ( 0.0000000000000000000, 1.764657755858045800E-014, -1.120020491801820800 ) ) ;
#284 = DIRECTION ( 'NONE',  ( -1.224606353822377500E-016, -1.000000000000000000, 0.0000000000000000000 ) ) ;
#285 = DIRECTION ( 'NONE',  ( -1.000000000000000000, 1.224606353822377300E-016, 0.0000000000000000000 ) ) ;
#286 = CARTESIAN_POINT ( 'NONE',  ( 0.0000000000000000000, 0.0000000000000000000, -289.3200204918018100 ) ) ;
#287 = AXIS2_PLACEMENT_3D ( 'NONE', #286, #285, #284 ) ;
#288 = CIRCLE ( 'NONE', #287, 288.1999999999999900 ) ;
#289 = CARTESIAN_POINT ( 'NONE',  ( 12.70000000000000300, 0.0000000000000000000, 0.5974517512316677200 ) ) ;
#290 = CARTESIAN_POINT ( 'NONE',  ( -12.69999999999999900, 1.555250069354419100E-015, -1.399979508198180500 ) ) ;
#291 = DIRECTION ( 'NONE',  ( 1.000000000000000000, 0.0000000000000000000, 0.0000000000000000000 ) ) ;
#292 = DIRECTION ( 'NONE',  ( -0.0000000000000000000, -0.0000000000000000000, 1.000000000000000000 ) ) ;
#293 = AXIS2_PLACEMENT_3D ( 'NONE', #300, #292, #291 ) ;
#294 = CIRCLE ( 'NONE', #293, 12.69999999999999900 ) ;
#295 = DIRECTION ( 'NONE',  ( 1.000000000000000000, 0.0000000000000000000, 0.0000000000000000000 ) ) ;
#296 = DIRECTION ( 'NONE',  ( -0.0000000000000000000, -0.0000000000000000000, 1.000000000000000000 ) ) ;
#297 = CARTESIAN_POINT ( 'NONE',  ( 0.0000000000000000000, 0.0000000000000000000, -1.399979508198180500 ) ) ;
#298 = AXIS2_PLACEMENT_3D ( 'NONE', #297, #296, #295 ) ;
#299 = CIRCLE ( 'NONE', #298, 12.69999999999999900 ) ;
#300 = CARTESIAN_POINT ( 'NONE',  ( 0.0000000000000000000, 0.0000000000000000000, -1.399979508198180500 ) ) ;
#301 = DIRECTION ( 'NONE',  ( 1.000000000000000000, 0.0000000000000000000, 0.0000000000000000000 ) ) ;
#302 = DIRECTION ( 'NONE',  ( -0.0000000000000000000, -0.0000000000000000000, 1.000000000000000000 ) ) ;
#303 = CARTESIAN_POINT ( 'NONE',  ( 0.0000000000000000000, 12.69999999999999200, 0.5974517512316633900 ) ) ;
#304 = DIRECTION ( 'NONE',  ( 1.000000000000000000, 0.0000000000000000000, 0.0000000000000000000 ) ) ;
#305 = DIRECTION ( 'NONE',  ( -0.0000000000000000000, -0.0000000000000000000, 1.000000000000000000 ) ) ;
#306 = AXIS2_PLACEMENT_3D ( 'NONE', #315, #305, #304 ) ;
#307 = FACE_OUTER_BOUND ( 'NONE', #59, .T. ) ;
#308 = CARTESIAN_POINT ( 'NONE',  ( 0.0000000000000000000, 0.0000000000000000000, 9.045083263039238400 ) ) ;
#309 = AXIS2_PLACEMENT_3D ( 'NONE', #308, #302, #301 ) ;
#310 = CYLINDRICAL_SURFACE ( 'NONE', #309, 12.69999999999999900 ) ;
#311 =( GEOMETRIC_REPRESENTATION_CONTEXT ( 3 ) GLOBAL_UNCERTAINTY_ASSIGNED_CONTEXT ( ( #244 ) ) GLOBAL_UNIT_ASSIGNED_CONTEXT ( ( #245, #313, #312 ) ) REPRESENTATION_CONTEXT ( 'NONE', 'WORKASPACE' ) );
#312 =( NAMED_UNIT ( * ) SI_UNIT ( $, .STERADIAN. ) SOLID_ANGLE_UNIT ( ) );
#313 =( NAMED_UNIT ( * ) PLANE_ANGLE_UNIT ( ) SI_UNIT ( $, .RADIAN. ) );
#314 = CIRCLE ( 'NONE', #306, 12.70000000000000100 ) ;
#315 = CARTESIAN_POINT ( 'NONE',  ( 0.0000000000000000000, 0.0000000000000000000, 0.5974517512316677200 ) ) ;
#316 = DIRECTION ( 'NONE',  ( 1.000000000000000000, 0.0000000000000000000, 0.0000000000000000000 ) ) ;
#317 = DIRECTION ( 'NONE',  ( -0.0000000000000000000, -0.0000000000000000000, 1.000000000000000000 ) ) ;
#318 = CARTESIAN_POINT ( 'NONE',  ( 0.0000000000000000000, 0.0000000000000000000, 9.045083263039238400 ) ) ;
#319 = UNCERTAINTY_MEASURE_WITH_UNIT (LENGTH_MEASURE( 1.000000000000000100E-005 ), #322, 'distance_accuracy_value', 'NONE');
#320 =( NAMED_UNIT ( * ) SI_UNIT ( $, .STERADIAN. ) SOLID_ANGLE_UNIT ( ) );
#321 =( NAMED_UNIT ( * ) PLANE_ANGLE_UNIT ( ) SI_UNIT ( $, .RADIAN. ) );
#322 =( LENGTH_UNIT ( ) NAMED_UNIT ( * ) SI_UNIT ( .MILLI., .METRE. ) );
ENDSEC;
END-ISO-10303-21;
