  0
SECTION
  2
HEADER
  9
$ACADVER
  1
AC1015
  9
$ACADMAINTVER
 70
     6
  9
$DWGCODEPAGE
  3
ANSI_1252
  9
$INSBASE
 10
0.0
 20
0.0
 30
0.0
  9
$EXTMIN
 10
0.0
 20
0.0
 30
0.0
  9
$EXTMAX
 10
17.5
 20
12.0
 30
0.0
  9
$LIMMIN
 10
0.0
 20
0.0
  9
$LIMMAX
 10
17.5
 20
12.0
  9
$ORTHOMODE
 70
     0
  9
$REGENMODE
 70
     1
  9
$FILLMODE
 70
     1
  9
$QTEXTMODE
 70
     0
  9
$MIRRTEXT
 70
     1
  9
$LTSCALE
 40
1.0
  9
$ATTMODE
 70
     1
  9
$TEXTSIZE
 40
0.1377952756
  9
$TRACEWID
 40
0.05
  9
$TEXTSTYLE
  7
Standard
  9
$CLAYER
  8
0
  9
$CELTYPE
  6
ByLayer
  9
$CECOLOR
 62
   256
  9
$CELTSCALE
 40
1.0
  9
$DISPSILH
 70
     0
  9
$DIMSCALE
 40
1.0
  9
$DIMASZ
 40
0.156
  9
$DIMEXO
 40
0.05
  9
$DIMDLI
 40
0.38
  9
$DIMRND
 40
0.0
  9
$DIMDLE
 40
0.0
  9
$DIMEXE
 40
0.125
  9
$DIMTP
 40
0.0
  9
$DIMTM
 40
0.0
  9
$DIMTXT
 40
0.1377952756
  9
$DIMCEN
 40
0.09
  9
$DIMTSZ
 40
0.0
  9
$DIMTOL
 70
     0
  9
$DIMLIM
 70
     0
  9
$DIMTIH
 70
     1
  9
$DIMTOH
 70
     1
  9
$DIMSE1
 70
     0
  9
$DIMSE2
 70
     0
  9
$DIMTAD
 70
     0
  9
$DIMZIN
 70
     1
  9
$DIMBLK
  1

  9
$DIMASO
 70
     1
  9
$DIMSHO
 70
     1
  9
$DIMPOST
  1

  9
$DIMAPOST
  1

  9
$DIMALT
 70
     0
  9
$DIMALTD
 70
     2
  9
$DIMALTF
 40
25.4
  9
$DIMLFAC
 40
1.0
  9
$DIMTOFL
 70
     0
  9
$DIMTVP
 40
0.0
  9
$DIMTIX
 70
     0
  9
$DIMSOXD
 70
     0
  9
$DIMSAH
 70
     0
  9
$DIMBLK1
  1

  9
$DIMBLK2
  1

  9
$DIMSTYLE
  2
Standard
  9
$DIMCLRD
 70
     0
  9
$DIMCLRE
 70
     0
  9
$DIMCLRT
 70
     0
  9
$DIMTFAC
 40
1.0
  9
$DIMGAP
 40
0.06
  9
$DIMJUST
 70
     0
  9
$DIMSD1
 70
     0
  9
$DIMSD2
 70
     0
  9
$DIMTOLJ
 70
     1
  9
$DIMTZIN
 70
     1
  9
$DIMALTZ
 70
     0
  9
$DIMALTTZ
 70
     0
  9
$DIMUPT
 70
     0
  9
$DIMDEC
 70
     0
  9
$DIMTDEC
 70
     3
  9
$DIMALTU
 70
     2
  9
$DIMALTTD
 70
     2
  9
$DIMTXSTY
  7
Standard
  9
$DIMAUNIT
 70
     0
  9
$DIMADEC
 70
     0
  9
$DIMALTRND
 40
0.0
  9
$DIMAZIN
 70
     0
  9
$DIMDSEP
 70
    46
  9
$DIMATFIT
 70
     3
  9
$DIMFRAC
 70
     0
  9
$DIMLDRBLK
  1

  9
$DIMLUNIT
 70
     2
  9
$DIMLWD
 70
    -2
  9
$DIMLWE
 70
    -2
  9
$DIMTMOVE
 70
     0
  9
$LUNITS
 70
     2
  9
$LUPREC
 70
     8
  9
$SKETCHINC
 40
0.1
  9
$FILLETRAD
 40
0.5
  9
$AUNITS
 70
     0
  9
$AUPREC
 70
     0
  9
$MENU
  1
.
  9
$ELEVATION
 40
0.0
  9
$PELEVATION
 40
0.0
  9
$THICKNESS
 40
0.0
  9
$LIMCHECK
 70
     0
  9
$CHAMFERA
 40
0.0
  9
$CHAMFERB
 40
0.0
  9
$CHAMFERC
 40
0.0
  9
$CHAMFERD
 40
0.0
  9
$SKPOLY
 70
     0
  9
$TDCREATE
 40
2459475.667934699
  9
$TDUCREATE
 40
2459475.834601366
  9
$TDUPDATE
 40
2459475.667937847
  9
$TDUUPDATE
 40
2459475.834604514
  9
$TDINDWG
 40
0.0000000116
  9
$TDUSRTIMER
 40
0.0000000116
  9
$USRTIMER
 70
     1
  9
$ANGBASE
 50
0.0
  9
$ANGDIR
 70
     0
  9
$PDMODE
 70
     0
  9
$PDSIZE
 40
-1.0
  9
$PLINEWID
 40
0.0
  9
$SPLFRAME
 70
     0
  9
$SPLINETYPE
 70
     6
  9
$SPLINESEGS
 70
     8
  9
$HANDSEED
  5
35C
  9
$SURFTAB1
 70
     6
  9
$SURFTAB2
 70
     6
  9
$SURFTYPE
 70
     6
  9
$SURFU
 70
     6
  9
$SURFV
 70
     6
  9
$UCSBASE
  2

  9
$UCSNAME
  2

  9
$UCSORG
 10
0.0
 20
0.0
 30
0.0
  9
$UCSXDIR
 10
1.0
 20
0.0
 30
0.0
  9
$UCSYDIR
 10
0.0
 20
1.0
 30
0.0
  9
$UCSORTHOREF
  2

  9
$UCSORTHOVIEW
 70
     0
  9
$UCSORGTOP
 10
0.0
 20
0.0
 30
0.0
  9
$UCSORGBOTTOM
 10
0.0
 20
0.0
 30
0.0
  9
$UCSORGLEFT
 10
0.0
 20
0.0
 30
0.0
  9
$UCSORGRIGHT
 10
0.0
 20
0.0
 30
0.0
  9
$UCSORGFRONT
 10
0.0
 20
0.0
 30
0.0
  9
$UCSORGBACK
 10
0.0
 20
0.0
 30
0.0
  9
$PUCSBASE
  2

  9
$PUCSNAME
  2

  9
$PUCSORG
 10
0.0
 20
0.0
 30
0.0
  9
$PUCSXDIR
 10
1.0
 20
0.0
 30
0.0
  9
$PUCSYDIR
 10
0.0
 20
1.0
 30
0.0
  9
$PUCSORTHOREF
  2

  9
$PUCSORTHOVIEW
 70
     0
  9
$PUCSORGTOP
 10
0.0
 20
0.0
 30
0.0
  9
$PUCSORGBOTTOM
 10
0.0
 20
0.0
 30
0.0
  9
$PUCSORGLEFT
 10
0.0
 20
0.0
 30
0.0
  9
$PUCSORGRIGHT
 10
0.0
 20
0.0
 30
0.0
  9
$PUCSORGFRONT
 10
0.0
 20
0.0
 30
0.0
  9
$PUCSORGBACK
 10
0.0
 20
0.0
 30
0.0
  9
$USERI1
 70
     0
  9
$USERI2
 70
     0
  9
$USERI3
 70
     0
  9
$USERI4
 70
     0
  9
$USERI5
 70
     0
  9
$USERR1
 40
0.0
  9
$USERR2
 40
0.0
  9
$USERR3
 40
0.0
  9
$USERR4
 40
0.0
  9
$USERR5
 40
0.0
  9
$WORLDVIEW
 70
     1
  9
$SHADEDGE
 70
     3
  9
$SHADEDIF
 70
    70
  9
$TILEMODE
 70
     1
  9
$MAXACTVP
 70
    64
  9
$PINSBASE
 10
0.0
 20
0.0
 30
0.0
  9
$PLIMCHECK
 70
     0
  9
$PEXTMIN
 10
1.0000000000E+20
 20
1.0000000000E+20
 30
1.0000000000E+20
  9
$PEXTMAX
 10
-1.0000000000E+20
 20
-1.0000000000E+20
 30
-1.0000000000E+20
  9
$PLIMMIN
 10
0.0
 20
0.0
  9
$PLIMMAX
 10
12.0
 20
9.0
  9
$UNITMODE
 70
     0
  9
$VISRETAIN
 70
     1
  9
$PLINEGEN
 70
     0
  9
$PSLTSCALE
 70
     1
  9
$TREEDEPTH
 70
  3020
  9
$CMLSTYLE
  2
Standard
  9
$CMLJUST
 70
     0
  9
$CMLSCALE
 40
1.0
  9
$PROXYGRAPHICS
 70
     1
  9
$MEASUREMENT
 70
     0
  9
$CELWEIGHT
370
    -1
  9
$ENDCAPS
280
     0
  9
$JOINSTYLE
280
     0
  9
$LWDISPLAY
290
     1
  9
$INSUNITS
 70
     1
  9
$HYPERLINKBASE
  1

  9
$STYLESHEET
  1

  9
$XEDIT
290
     1
  9
$CEPSNTYPE
380
     0
  9
$PSTYLEMODE
290
     1
  9
$FINGERPRINTGUID
  2
{46410B9D-A499-4EC3-BCC5-A4AD6F3042E7}
  9
$VERSIONGUID
  2
{FAEB1C32-E019-11D5-929B-00C0DF256EC4}
  9
$EXTNAMES
290
     1
  9
$PSVPSCALE
 40
0.0
  9
$OLESTARTUP
290
     0
  0
ENDSEC
  0
SECTION
  2
CLASSES
  0
CLASS
  1
ACDBDICTIONARYWDFLT
  2
AcDbDictionaryWithDefault
  3
ObjectDBX Classes
 90
        0
280
     0
281
     0
  0
CLASS
  1
VISUALSTYLE
  2
AcDbVisualStyle
  3
ObjectDBX Classes
 90
     4095
280
     0
281
     0
  0
CLASS
  1
MATERIAL
  2
AcDbMaterial
  3
ObjectDBX Classes
 90
     1153
280
     0
281
     0
  0
CLASS
  1
SCALE
  2
AcDbScale
  3
ObjectDBX Classes
 90
     1153
280
     0
281
     0
  0
CLASS
  1
TABLESTYLE
  2
AcDbTableStyle
  3
ObjectDBX Classes
 90
     4095
280
     0
281
     0
  0
CLASS
  1
MLEADERSTYLE
  2
AcDbMLeaderStyle
  3
ACDB_MLEADERSTYLE_CLASS
 90
     4095
280
     0
281
     0
  0
CLASS
  1
SUN
  2
AcDbSun
  3
SCENEOE
 90
     1153
280
     0
281
     0
  0
CLASS
  1
ACDBPLACEHOLDER
  2
AcDbPlaceHolder
  3
ObjectDBX Classes
 90
        0
280
     0
281
     0
  0
CLASS
  1
LAYOUT
  2
AcDbLayout
  3
ObjectDBX Classes
 90
        0
280
     0
281
     0
  0
ENDSEC
  0
SECTION
  2
TABLES
  0
TABLE
  2
VPORT
  5
8
330
0
100
AcDbSymbolTable
 70
     1
  0
VPORT
  5
29
330
8
100
AcDbSymbolTableRecord
100
AcDbViewportTableRecord
  2
*Active
 70
     0
 10
0.0
 20
0.0
 11
1.0
 21
1.0
 12
8.75
 22
6.0
 13
0.0
 23
0.0
 14
0.5
 24
0.5
 15
0.5
 25
0.5
 16
0.0
 26
0.0
 36
1.0
 17
0.0
 27
0.0
 37
0.0
 40
12.0
 41
1.4583333333
 42
50.0
 43
0.0
 44
0.0
 50
0.0
 51
0.0
 71
     0
 72
  2000
 73
     1
 74
     3
 75
     0
 76
     0
 77
     0
 78
     0
281
     0
 65
     1
110
0.0
120
0.0
130
0.0
111
1.0
121
0.0
131
0.0
112
0.0
122
1.0
132
0.0
 79
     0
146
0.0
  0
ENDTAB
  0
TABLE
  2
LTYPE
  5
5
330
0
100
AcDbSymbolTable
 70
     6
  0
LTYPE
  5
14
330
5
100
AcDbSymbolTableRecord
100
AcDbLinetypeTableRecord
  2
ByBlock
 70
     0
  3

 72
    65
 73
     0
 40
0.0
  0
LTYPE
  5
15
330
5
100
AcDbSymbolTableRecord
100
AcDbLinetypeTableRecord
  2
ByLayer
 70
     0
  3

 72
    65
 73
     0
 40
0.0
  0
LTYPE
  5
16
330
5
100
AcDbSymbolTableRecord
100
AcDbLinetypeTableRecord
  2
Continuous
 70
     0
  3
Solid line
 72
    65
 73
     0
 40
0.0
  0
LTYPE
  5
6E
330
5
100
AcDbSymbolTableRecord
100
AcDbLinetypeTableRecord
  2
HIDDEN
 70
     0
  3
Hidden __ __ __ __ __ __ __ __ __ __ __ __ __ __
 72
    65
 73
     2
 40
0.075
 49
0.05
 74
     0
 49
-0.025
 74
     0
  0
LTYPE
  5
6F
330
5
100
AcDbSymbolTableRecord
100
AcDbLinetypeTableRecord
  2
PHANTOM
 70
     0
  3
Phantom ______  __  __  ______  __  __  ______
 72
    65
 73
     6
 40
0.5
 49
0.25
 74
     0
 49
-0.05
 74
     0
 49
0.05
 74
     0
 49
-0.05
 74
     0
 49
0.05
 74
     0
 49
-0.05
 74
     0
  0
LTYPE
  5
70
330
5
100
AcDbSymbolTableRecord
100
AcDbLinetypeTableRecord
  2
CENTER
 70
     0
  3
Center ____ _ ____ _ ____ _ ____ _ ____ _ ____
 72
    65
 73
     4
 40
0.4
 49
0.25
 74
     0
 49
-0.05
 74
     0
 49
0.05
 74
     0
 49
-0.05
 74
     0
  0
LTYPE
  5
71
330
5
100
AcDbSymbolTableRecord
100
AcDbLinetypeTableRecord
  2
CENTERX2
 70
     0
  3
Center (2x) ________  __  ________  __  _____
 72
    65
 73
     4
 40
0.8
 49
0.5
 74
     0
 49
-0.1
 74
     0
 49
0.1
 74
     0
 49
-0.1
 74
     0
  0
LTYPE
  5
72
330
5
100
AcDbSymbolTableRecord
100
AcDbLinetypeTableRecord
  2
DOT2
 70
     0
  3
Dot (.5x) ........................................
 72
    65
 73
     2
 40
0.025
 49
0.0
 74
     0
 49
-0.025
 74
     0
  0
ENDTAB
  0
TABLE
  2
LAYER
  5
2
330
0
100
AcDbSymbolTable
 70
    26
  0
LAYER
  5
10
330
2
100
AcDbSymbolTableRecord
100
AcDbLayerTableRecord
  2
0
 70
     0
 62
     7
  6
Continuous
370
    -3
390
F
  0
LAYER
  5
73
330
2
100
AcDbSymbolTableRecord
100
AcDbLayerTableRecord
  2
FORMAT
 70
     0
 62
     7
  6
Continuous
370
    -3
390
F
  0
LAYER
  5
74
330
2
100
AcDbSymbolTableRecord
100
AcDbLayerTableRecord
  2
SLD-0
 70
     0
 62
     7
  6
Continuous
370
    -3
390
F
  0
LAYER
  5
75
330
2
100
AcDbSymbolTableRecord
100
AcDbLayerTableRecord
  2
BORDER
 70
     0
 62
     7
  6
Continuous
370
    -3
390
F
  0
LAYER
  5
76
330
2
100
AcDbSymbolTableRecord
100
AcDbLayerTableRecord
  2
D1
 70
     0
 62
     7
  6
Continuous
370
    -3
390
F
  0
LAYER
  5
77
330
2
100
AcDbSymbolTableRecord
100
AcDbLayerTableRecord
  2
S2
 70
     0
 62
     7
  6
Continuous
370
    -3
390
F
  0
LAYER
  5
78
330
2
100
AcDbSymbolTableRecord
100
AcDbLayerTableRecord
  2
S1
 70
     0
 62
     7
  6
Continuous
370
    -3
390
F
  0
LAYER
  5
79
330
2
100
AcDbSymbolTableRecord
100
AcDbLayerTableRecord
  2
S3
 70
     0
 62
     7
  6
Continuous
370
    -3
390
F
  0
LAYER
  5
7A
330
2
100
AcDbSymbolTableRecord
100
AcDbLayerTableRecord
  2
HEATSINK
 70
     0
 62
     7
  6
Continuous
370
    -3
390
F
  0
LAYER
  5
7B
330
2
100
AcDbSymbolTableRecord
100
AcDbLayerTableRecord
  2
BASE
 70
     0
 62
     7
  6
Continuous
370
    -3
390
F
  0
LAYER
  5
7C
330
2
100
AcDbSymbolTableRecord
100
AcDbLayerTableRecord
  2
AZIMUTH
 70
     0
 62
     7
  6
Continuous
370
    -3
390
F
  0
LAYER
  5
7D
330
2
100
AcDbSymbolTableRecord
100
AcDbLayerTableRecord
  2
MECHANICAL1
 70
     0
 62
     7
  6
Continuous
370
    -3
390
F
  0
LAYER
  5
7E
330
2
100
AcDbSymbolTableRecord
100
AcDbLayerTableRecord
  2
PACKAGE
 70
     0
 62
     7
  6
Continuous
370
    -3
390
F
  0
LAYER
  5
7F
330
2
100
AcDbSymbolTableRecord
100
AcDbLayerTableRecord
  2
BO
 70
     0
 62
     7
  6
Continuous
370
    -3
390
F
  0
LAYER
  5
80
330
2
100
AcDbSymbolTableRecord
100
AcDbLayerTableRecord
  2
DIM1
 70
     0
 62
     6
  6
Continuous
370
    -3
390
F
  0
LAYER
  5
81
330
2
100
AcDbSymbolTableRecord
100
AcDbLayerTableRecord
  2
PCB_OUTLINE
 70
     0
 62
     3
  6
Continuous
370
    -3
390
F
  0
LAYER
  5
82
330
2
100
AcDbSymbolTableRecord
100
AcDbLayerTableRecord
  2
ADAPTERPLATE
 70
     0
 62
     4
  6
Continuous
370
    -3
390
F
  0
LAYER
  5
83
330
2
100
AcDbSymbolTableRecord
100
AcDbLayerTableRecord
  2
ENGRAVE
 70
     0
 62
     7
  6
Continuous
370
    -3
390
F
  0
LAYER
  5
84
330
2
100
AcDbSymbolTableRecord
100
AcDbLayerTableRecord
  2
SILK-SCREEN
 70
     0
 62
   255
  6
Continuous
370
    -3
390
F
  0
LAYER
  5
85
330
2
100
AcDbSymbolTableRecord
100
AcDbLayerTableRecord
  2
HARDWARE
 70
     0
 62
     9
  6
Continuous
370
    -3
390
F
  0
LAYER
  5
86
330
2
100
AcDbSymbolTableRecord
100
AcDbLayerTableRecord
  2
POT
 70
     0
 62
     4
  6
Continuous
370
    -3
390
F
  0
LAYER
  5
87
330
2
100
AcDbSymbolTableRecord
100
AcDbLayerTableRecord
  2
CONNECTORS
 70
     0
 62
     1
  6
Continuous
370
    -3
390
F
  0
LAYER
  5
88
330
2
100
AcDbSymbolTableRecord
100
AcDbLayerTableRecord
  2
ENDCAP
 70
     0
 62
     4
  6
Continuous
370
    -3
390
F
  0
LAYER
  5
89
330
2
100
AcDbSymbolTableRecord
100
AcDbLayerTableRecord
  2
KEYLOCK
 70
     0
 62
     7
  6
Continuous
370
    -3
390
F
  0
LAYER
  5
8A
330
2
100
AcDbSymbolTableRecord
100
AcDbLayerTableRecord
  2
SLD-DEFPOINTS
 70
     0
 62
     7
  6
Continuous
290
     0
370
    -3
390
F
  0
LAYER
  5
8B
330
2
100
AcDbSymbolTableRecord
100
AcDbLayerTableRecord
  2
SOCKET
 70
     0
 62
    91
  6
Continuous
370
    -3
390
F
  0
ENDTAB
  0
TABLE
  2
STYLE
  5
3
330
0
100
AcDbSymbolTable
 70
    16
  0
STYLE
  5
11
330
3
100
AcDbSymbolTableRecord
100
AcDbTextStyleTableRecord
  2
Standard
 70
     0
 40
0.0
 41
1.0
 50
0.0
 71
     0
 42
0.1377952756
  3
txt
  4

  0
STYLE
  5
92
330
3
100
AcDbSymbolTableRecord
100
AcDbTextStyleTableRecord
  2
SLDTEXTSTYLE0
 70
     0
 40
0.0
 41
0.7
 50
0.0
 71
     0
 42
0.1377952756
  3
TXT
  4

  0
STYLE
  5
9C
330
3
100
AcDbSymbolTableRecord
100
AcDbTextStyleTableRecord
  2
SLDTEXTSTYLE1
 70
     0
 40
0.0
 41
0.9487179487
 50
0.0
 71
     0
 42
0.1377952756
  3
TXT
  4

  0
STYLE
  5
2F3
330
3
100
AcDbSymbolTableRecord
100
AcDbTextStyleTableRecord
  2
SLDTEXTSTYLE2
 70
     0
 40
0.0
 41
0.638185654
 50
0.0
 71
     0
 42
0.1377952756
  3
TXT
  4

  0
STYLE
  5
2F8
330
3
100
AcDbSymbolTableRecord
100
AcDbTextStyleTableRecord
  2
SLDTEXTSTYLE3
 70
     0
 40
0.0
 41
0.9285714286
 50
0.0
 71
     0
 42
0.1377952756
  3
TXT
  4

  0
STYLE
  5
2FA
330
3
100
AcDbSymbolTableRecord
100
AcDbTextStyleTableRecord
  2
SLDTEXTSTYLE4
 70
     0
 40
0.0
 41
0.75
 50
0.0
 71
     0
 42
0.1377952756
  3
TXT
  4

  0
STYLE
  5
316
330
3
100
AcDbSymbolTableRecord
100
AcDbTextStyleTableRecord
  2
SLDTEXTSTYLE5
 70
     0
 40
0.0
 41
1.0
 50
0.0
 71
     0
 42
0.1377952756
  3
TXT
  4

  0
STYLE
  5
326
330
3
100
AcDbSymbolTableRecord
100
AcDbTextStyleTableRecord
  2
SLDTEXTSTYLE6
 70
     0
 40
0.0
 41
0.6000654736
 50
0.0
 71
     0
 42
0.1377952756
  3
TXT
  4

  0
STYLE
  5
339
330
3
100
AcDbSymbolTableRecord
100
AcDbTextStyleTableRecord
  2
SLDTEXTSTYLE7
 70
     0
 40
0.0
 41
0.9545454545
 50
0.0
 71
     0
 42
0.1377952756
  3
TXT
  4

  0
STYLE
  5
33B
330
3
100
AcDbSymbolTableRecord
100
AcDbTextStyleTableRecord
  2
SLDTEXTSTYLE8
 70
     0
 40
0.0
 41
0.962962963
 50
0.0
 71
     0
 42
0.1377952756
  3
TXT
  4

  0
STYLE
  5
33E
330
3
100
AcDbSymbolTableRecord
100
AcDbTextStyleTableRecord
  2
SLDTEXTSTYLE9
 70
     0
 40
0.0
 41
0.9444444444
 50
0.0
 71
     0
 42
0.1377952756
  3
TXT
  4

  0
STYLE
  5
340
330
3
100
AcDbSymbolTableRecord
100
AcDbTextStyleTableRecord
  2
SLDTEXTSTYLE10
 70
     0
 40
0.0
 41
0.8571428571
 50
0.0
 71
     0
 42
0.1377952756
  3
TXT
  4

  0
STYLE
  5
34A
330
3
100
AcDbSymbolTableRecord
100
AcDbTextStyleTableRecord
  2
SLDTEXTSTYLE11
 70
     0
 40
0.0
 41
0.9375
 50
0.0
 71
     0
 42
0.1377952756
  3
TXT
  4

  0
STYLE
  5
355
330
3
100
AcDbSymbolTableRecord
100
AcDbTextStyleTableRecord
  2
SLDTEXTSTYLE12
 70
     0
 40
0.0
 41
0.9411764706
 50
0.0
 71
     0
 42
0.1377952756
  3
TXT
  4

  0
STYLE
  5
357
330
3
100
AcDbSymbolTableRecord
100
AcDbTextStyleTableRecord
  2
SLDTEXTSTYLE13
 70
     0
 40
0.0
 41
0.9583333333
 50
0.0
 71
     0
 42
0.1377952756
  3
TXT
  4

  0
STYLE
  5
35A
330
3
100
AcDbSymbolTableRecord
100
AcDbTextStyleTableRecord
  2
SLDTEXTSTYLE14
 70
     0
 40
0.0
 41
0.9615384615
 50
0.0
 71
     0
 42
0.1377952756
  3
TXT
  4

  0
ENDTAB
  0
TABLE
  2
VIEW
  5
6
330
0
100
AcDbSymbolTable
 70
     0
  0
ENDTAB
  0
TABLE
  2
UCS
  5
7
330
0
100
AcDbSymbolTable
 70
     0
  0
ENDTAB
  0
TABLE
  2
APPID
  5
9
330
0
100
AcDbSymbolTable
 70
     1
  0
APPID
  5
12
330
9
100
AcDbSymbolTableRecord
100
AcDbRegAppTableRecord
  2
ACAD
 70
     0
  0
ENDTAB
  0
TABLE
  2
DIMSTYLE
  5
A
330
0
100
AcDbSymbolTable
 70
     1
100
AcDbDimStyleTable
  0
DIMSTYLE
105
27
330
A
100
AcDbSymbolTableRecord
100
AcDbDimStyleTableRecord
  2
Standard
 70
     0
178
     0
340
11
  0
ENDTAB
  0
TABLE
  2
BLOCK_RECORD
  5
1
330
0
100
AcDbSymbolTable
 70
     9
  0
BLOCK_RECORD
  5
1F
330
1
100
AcDbSymbolTableRecord
100
AcDbBlockTableRecord
  2
*Model_Space
340
22
  0
BLOCK_RECORD
  5
1B
330
1
100
AcDbSymbolTableRecord
100
AcDbBlockTableRecord
  2
*Paper_Space
340
1E
  0
BLOCK_RECORD
  5
23
330
1
100
AcDbSymbolTableRecord
100
AcDbBlockTableRecord
  2
*Paper_Space0
340
26
  0
BLOCK_RECORD
  5
8C
330
1
100
AcDbSymbolTableRecord
100
AcDbBlockTableRecord
  2
COPYRIGHT
340
0
102
{BLKREFS
331
2B1
102
}
  0
BLOCK_RECORD
  5
8F
330
1
100
AcDbSymbolTableRecord
100
AcDbBlockTableRecord
  2
SW_NOTE_0
340
0
102
{BLKREFS
331
96
102
}
  0
BLOCK_RECORD
  5
97
330
1
100
AcDbSymbolTableRecord
100
AcDbBlockTableRecord
  2
MANUFACTURING INFO
340
0
102
{BLKREFS
331
2B0
102
}
  0
BLOCK_RECORD
  5
2F0
330
1
100
AcDbSymbolTableRecord
100
AcDbBlockTableRecord
  2
SW_NOTE_1
340
0
102
{BLKREFS
331
2F7
102
}
  0
BLOCK_RECORD
  5
2FC
330
1
100
AcDbSymbolTableRecord
100
AcDbBlockTableRecord
  2
SW_NOTE_2
340
0
102
{BLKREFS
331
301
102
}
  0
BLOCK_RECORD
  5
302
330
1
100
AcDbSymbolTableRecord
100
AcDbBlockTableRecord
  2
SW_NOTE_3
340
0
102
{BLKREFS
331
30A
102
}
  0
BLOCK_RECORD
  5
313
330
1
100
AcDbSymbolTableRecord
100
AcDbBlockTableRecord
  2
SW_NOTE_4
340
0
102
{BLKREFS
331
319
102
}
  0
BLOCK_RECORD
  5
320
330
1
100
AcDbSymbolTableRecord
100
AcDbBlockTableRecord
  2
SW_NOTE_5
340
0
102
{BLKREFS
331
330
102
}
  0
ENDTAB
  0
ENDSEC
  0
SECTION
  2
BLOCKS
  0
BLOCK
  5
20
330
1F
100
AcDbEntity
  8
0
100
AcDbBlockBegin
  2
*Model_Space
 70
     0
 10
0.0
 20
0.0
 30
0.0
  3
*Model_Space
  1

  0
ENDBLK
  5
21
330
1F
100
AcDbEntity
  8
0
100
AcDbBlockEnd
  0
BLOCK
  5
1C
330
1B
100
AcDbEntity
 67
     1
  8
0
100
AcDbBlockBegin
  2
*Paper_Space
 70
     0
 10
0.0
 20
0.0
 30
0.0
  3
*Paper_Space
  1

  0
ENDBLK
  5
1D
330
1B
100
AcDbEntity
 67
     1
  8
0
100
AcDbBlockEnd
  0
BLOCK
  5
24
330
23
100
AcDbEntity
  8
0
100
AcDbBlockBegin
  2
*Paper_Space0
 70
     0
 10
0.0
 20
0.0
 30
0.0
  3
*Paper_Space0
  1

  0
ENDBLK
  5
25
330
23
100
AcDbEntity
  8
0
100
AcDbBlockEnd
  0
BLOCK
  5
8D
330
8C
100
AcDbEntity
  8
0
100
AcDbBlockBegin
  2
COPYRIGHT
 70
     0
 10
0.0
 20
0.0
 30
0.0
  3
COPYRIGHT
  1

  0
INSERT
  5
96
330
8C
100
AcDbEntity
  8
BORDER
 62
     7
100
AcDbBlockReference
  2
SW_NOTE_0
 10
0.0258733304
 20
0.0043202106
 30
0.0
  0
ENDBLK
  5
8E
330
8C
100
AcDbEntity
  8
0
100
AcDbBlockEnd
  0
BLOCK
  5
90
330
8F
100
AcDbEntity
  8
0
100
AcDbBlockBegin
  2
SW_NOTE_0
 70
     0
 10
0.0
 20
0.0
 30
0.0
  3
SW_NOTE_0
  1

  0
MTEXT
  5
93
330
8F
100
AcDbEntity
  8
BORDER
 62
     0
100
AcDbMText
 10
0.0
 20
0.3222411541
 30
0.0
 40
0.2499800004
 41
0.0
 71
     1
 72
     1
  1
COPYRIGHT
  7
SLDTEXTSTYLE0
 73
     1
 44
1.0
  0
MTEXT
  5
94
330
8F
100
AcDbEntity
  8
BORDER
 62
     0
100
AcDbMText
 10
2.0651126236
 20
0.3118253148
 30
0.0
 40
0.2499800004
 41
0.0
 71
     1
 72
     1
  1
Ó
  7
SLDTEXTSTYLE0
 73
     1
 44
1.0
  0
MTEXT
  5
95
330
8F
100
AcDbEntity
  8
BORDER
 62
     0
100
AcDbMText
 10
2.4591781716
 20
0.3222411541
 30
0.0
 40
0.2499800004
 41
0.0
 71
     1
 72
     1
  1
2021 by THORLABS INC.
  7
SLDTEXTSTYLE0
 73
     1
 44
1.0
  0
ENDBLK
  5
91
330
8F
100
AcDbEntity
  8
0
100
AcDbBlockEnd
  0
BLOCK
  5
98
330
97
100
AcDbEntity
  8
0
100
AcDbBlockBegin
  2
MANUFACTURING INFO
 70
     0
 10
0.0
 20
0.0
 30
0.0
  3
MANUFACTURING INFO
  1

  0
LINE
  5
9A
330
97
100
AcDbEntity
  8
D1
100
AcDbLine
 10
8.1645941722
 20
3.1030884968
 30
0.0
 11
2.189372716
 21
3.1030884968
 31
0.0
  0
LINE
  5
9B
330
97
100
AcDbEntity
  8
D1
100
AcDbLine
 10
2.2844060593
 20
3.1624285307
 30
0.0
 11
8.069560829
 21
3.1624285307
 31
0.0
  0
MTEXT
  5
9D
330
97
100
AcDbEntity
  8
D1
100
AcDbMText
 10
2.3821313192
 20
3.3480874612
 30
0.0
 40
0.15
 41
0.0
 71
     1
 72
     1
  1
INFORMATION ONLY, NOT FOR MANUFACTURING
  7
SLDTEXTSTYLE1
 73
     1
 44
1.0
  0
ENDBLK
  5
99
330
97
100
AcDbEntity
  8
0
100
AcDbBlockEnd
  0
BLOCK
  5
2F1
330
2F0
100
AcDbEntity
  8
0
100
AcDbBlockBegin
  2
SW_NOTE_1
 70
     0
 10
0.0
 20
0.0
 30
0.0
  3
SW_NOTE_1
  1

  0
MTEXT
  5
2F4
330
2F0
100
AcDbEntity
  8
D1
 62
     0
100
AcDbMText
 10
0.0
 20
0.128906774
 30
0.0
 40
0.1
 41
0.0
 71
     1
 72
     1
  1
Notes:
  7
SLDTEXTSTYLE2
 73
     1
 44
1.0
  0
MTEXT
  5
2F5
330
2F0
100
AcDbEntity
  8
D1
 62
     0
100
AcDbMText
 10
0.0
 20
-0.2030932241
 30
0.0
 40
0.1
 41
0.0
 71
     1
 72
     1
  1
1)  #8-32 TO M4 MOUNTING ADAPTOR INCLUDED
  7
SLDTEXTSTYLE2
 73
     1
 44
1.0
  0
MTEXT
  5
2F6
330
2F0
100
AcDbEntity
  8
D1
 62
     0
100
AcDbMText
 10
0.0
 20
-0.3690932231
 30
0.0
 40
0.1
 41
0.0
 71
     1
 72
     1
  1
WITH EACH UNIT.
  7
SLDTEXTSTYLE2
 73
     1
 44
1.0
  0
ENDBLK
  5
2F2
330
2F0
100
AcDbEntity
  8
0
100
AcDbBlockEnd
  0
BLOCK
  5
2FD
330
2FC
100
AcDbEntity
  8
0
100
AcDbBlockBegin
  2
SW_NOTE_2
 70
     0
 10
0.0
 20
0.0
 30
0.0
  3
SW_NOTE_2
  1

  0
MTEXT
  5
2FF
330
2FC
100
AcDbEntity
  8
SLD-0
 62
     0
100
AcDbMText
 10
0.600499431
 20
0.1776274445
 30
0.0
 40
0.1377952756
 41
0.0
 71
     2
 72
     1
  1
#8-32 x 0.35
  7
SLDTEXTSTYLE4
 73
     1
 44
1.0
  0
MTEXT
  5
300
330
2FC
100
AcDbEntity
  8
SLD-0
 62
     0
100
AcDbMText
 10
0.5993063188
 20
-0.0511127131
 30
0.0
 40
0.1377952756
 41
0.0
 71
     2
 72
     1
  1
(Note 1)
  7
SLDTEXTSTYLE4
 73
     1
 44
1.0
  0
ENDBLK
  5
2FE
330
2FC
100
AcDbEntity
  8
0
100
AcDbBlockEnd
  0
BLOCK
  5
303
330
302
100
AcDbEntity
  8
0
100
AcDbBlockBegin
  2
SW_NOTE_3
 70
     0
 10
0.0
 20
0.0
 30
0.0
  3
SW_NOTE_3
  1

  0
MTEXT
  5
305
330
302
100
AcDbEntity
  8
SLD-0
 62
     0
100
AcDbMText
 10
0.1076525591
 20
0.1776274445
 30
0.0
 40
0.1377952756
 41
0.0
 71
     2
 72
     1
  1
%%c
  7
SLDTEXTSTYLE4
 73
     1
 44
1.0
  0
MTEXT
  5
306
330
302
100
AcDbEntity
  8
SLD-0
 62
     0
100
AcDbMText
 10
0.2986033865
 20
0.1776274445
 30
0.0
 40
0.1377952756
 41
0.0
 71
     2
 72
     1
  1
.50
  7
SLDTEXTSTYLE4
 73
     1
 44
1.0
  0
MTEXT
  5
307
330
302
100
AcDbEntity
  8
SLD-0
 62
     0
100
AcDbMText
 10
0.2083961163
 20
-0.0511127131
 30
0.0
 40
0.1377952756
 41
0.0
 71
     2
 72
     1
  1
CLEAR APERTURE
  7
SLDTEXTSTYLE4
 73
     1
 44
1.0
  0
MTEXT
  5
308
330
302
100
AcDbEntity
  8
SLD-0
 62
     0
100
AcDbMText
 10
0.2068575714
 20
-0.2798528707
 30
0.0
 40
0.1377952756
 41
0.0
 71
     2
 72
     1
  1
#0.535-40 THREAD
  7
SLDTEXTSTYLE4
 73
     1
 44
1.0
  0
MTEXT
  5
309
330
302
100
AcDbEntity
  8
SLD-0
 62
     0
100
AcDbMText
 10
0.2059035597
 20
-0.5085930283
 30
0.0
 40
0.1377952756
 41
0.0
 71
     2
 72
     1
  1
(SM05 COMPATIBLE)
  7
SLDTEXTSTYLE4
 73
     1
 44
1.0
  0
ENDBLK
  5
304
330
302
100
AcDbEntity
  8
0
100
AcDbBlockEnd
  0
BLOCK
  5
314
330
313
100
AcDbEntity
  8
0
100
AcDbBlockBegin
  2
SW_NOTE_4
 70
     0
 10
0.0
 20
0.0
 30
0.0
  3
SW_NOTE_4
  1

  0
MTEXT
  5
317
330
313
100
AcDbEntity
  8
D1
 62
     0
100
AcDbMText
 10
0.5208333333
 20
0.128906774
 30
0.0
 40
0.1
 41
0.0
 71
     3
 72
     1
  1
CABLE
  7
SLDTEXTSTYLE5
 73
     1
 44
1.0
  0
MTEXT
  5
318
330
313
100
AcDbEntity
  8
D1
 62
     0
100
AcDbMText
 10
0.5200260174
 20
-0.037093225
 30
0.0
 40
0.1
 41
0.0
 71
     3
 72
     1
  1
5" LONG
  7
SLDTEXTSTYLE3
 73
     1
 44
1.0
  0
ENDBLK
  5
315
330
313
100
AcDbEntity
  8
0
100
AcDbBlockEnd
  0
BLOCK
  5
321
330
320
100
AcDbEntity
  8
0
100
AcDbBlockBegin
  2
SW_NOTE_5
 70
     0
 10
0.0
 20
0.0
 30
0.0
  3
SW_NOTE_5
  1

  0
MTEXT
  5
323
330
320
100
AcDbEntity
  8
D1
 62
     0
100
AcDbMText
 10
0.0
 20
0.128906774
 30
0.0
 40
0.1
 41
0.0
 71
     1
 72
     1
  1
PIN ASSIGNMENTS:
  7
SLDTEXTSTYLE2
 73
     1
 44
1.0
  0
MTEXT
  5
324
330
320
100
AcDbEntity
  8
D1
 62
     0
100
AcDbMText
 10
0.0
 20
-0.2030932241
 30
0.0
 40
0.1
 41
0.0
 71
     1
 72
     1
  1
PIN1: X-AXIS (Q2 + Q3) - (Q1 + Q4)
  7
SLDTEXTSTYLE2
 73
     1
 44
1.0
  0
MTEXT
  5
325
330
320
100
AcDbEntity
  8
D1
 62
     0
100
AcDbMText
 10
0.0
 20
-0.3690932231
 30
0.0
 40
0.1
 41
0.0
 71
     1
 72
     1
  1
PIN2: Y-AXIS (Q1 + Q2) - (Q3 + Q4)
  7
SLDTEXTSTYLE2
 73
     1
 44
1.0
  0
MTEXT
  5
327
330
320
100
AcDbEntity
  8
D1
 62
     0
100
AcDbMText
 10
0.0
 20
-0.5350932221
 30
0.0
 40
0.1
 41
0.0
 71
     1
 72
     1
  1
PIN3: SUM (Q1 + Q2 + Q3 + Q4)
  7
SLDTEXTSTYLE6
 73
     1
 44
1.0
  0
MTEXT
  5
328
330
320
100
AcDbEntity
  8
D1
 62
     0
100
AcDbMText
 10
0.0
 20
-0.7010932211
 30
0.0
 40
0.1
 41
0.0
 71
     1
 72
     1
  1
PIN4: +V (+5 - +15V)
  7
SLDTEXTSTYLE2
 73
     1
 44
1.0
  0
MTEXT
  5
329
330
320
100
AcDbEntity
  8
D1
 62
     0
100
AcDbMText
 10
0.0
 20
-0.8670932201
 30
0.0
 40
0.1
 41
0.0
 71
     1
 72
     1
  1
PIN5: COMMON
  7
SLDTEXTSTYLE2
 73
     1
 44
1.0
  0
MTEXT
  5
32A
330
320
100
AcDbEntity
  8
D1
 62
     0
100
AcDbMText
 10
0.0
 20
-1.0330932192
 30
0.0
 40
0.1
 41
0.0
 71
     1
 72
     1
  1
PIN6: -V (-5 - -15V)
  7
SLDTEXTSTYLE2
 73
     1
 44
1.0
  0
MTEXT
  5
32B
330
320
100
AcDbEntity
  8
D1
 62
     0
100
AcDbMText
 10
0.0
 20
-1.3650932172
 30
0.0
 40
0.1
 41
0.0
 71
     1
 72
     1
  1
*MATES WITH HIROSE P/N HR10A-7R-6S
  7
SLDTEXTSTYLE2
 73
     1
 44
1.0
  0
MTEXT
  5
32C
330
320
100
AcDbEntity
  8
D1
 62
     0
100
AcDbMText
 10
0.0
 20
-1.6970932152
 30
0.0
 40
0.1
 41
0.0
 71
     1
 72
     1
  1
Detector Specifications:
  7
SLDTEXTSTYLE2
 73
     1
 44
1.0
  0
MTEXT
  5
32D
330
320
100
AcDbEntity
  8
D1
 62
     0
100
AcDbMText
 10
0.0
 20
-2.0290932133
 30
0.0
 40
0.1
 41
0.0
 71
     1
 72
     1
  1
Wavelength Range:  400 to 1050nm
  7
SLDTEXTSTYLE2
 73
     1
 44
1.0
  0
MTEXT
  5
32E
330
320
100
AcDbEntity
  8
D1
 62
     0
100
AcDbMText
 10
0.0
 20
-2.1950932123
 30
0.0
 40
0.1
 41
0.0
 71
     1
 72
     1
  1
Bandwidth:  150kHz
  7
SLDTEXTSTYLE2
 73
     1
 44
1.0
  0
MTEXT
  5
32F
330
320
100
AcDbEntity
  8
D1
 62
     0
100
AcDbMText
 10
0.0
 20
-2.3610932113
 30
0.0
 40
0.1
 41
0.0
 71
     1
 72
     1
  1
Operating Temperature: 10 - 40 Degrees C.
  7
SLDTEXTSTYLE2
 73
     1
 44
1.0
  0
ENDBLK
  5
322
330
320
100
AcDbEntity
  8
0
100
AcDbBlockEnd
  0
ENDSEC
  0
SECTION
  2
ENTITIES
  0
LINE
  5
9E
330
1F
100
AcDbEntity
  8
D1
100
AcDbLine
 10
7.1510008748
 20
6.2689593103
 30
0.0
 11
6.7760008748
 21
6.2689593103
 31
0.0
  0
LINE
  5
9F
330
1F
100
AcDbEntity
  8
D1
100
AcDbLine
 10
6.7760008748
 20
6.2689593103
 30
0.0
 11
6.7760008748
 21
5.8239593103
 31
0.0
  0
LINE
  5
A0
330
1F
100
AcDbEntity
  8
D1
100
AcDbLine
 10
6.7760008748
 20
5.8239593103
 30
0.0
 11
7.1510008748
 21
5.8239593103
 31
0.0
  0
LINE
  5
A1
330
1F
100
AcDbEntity
  8
D1
100
AcDbLine
 10
7.1510008748
 20
5.8239593103
 30
0.0
 11
7.1510008748
 21
6.2689593103
 31
0.0
  0
LINE
  5
A2
330
1F
100
AcDbEntity
  8
D1
100
AcDbLine
 10
6.0423316746
 20
5.9167774454
 30
0.0
 11
6.0478578842
 21
5.9011994922
 31
0.0
  0
LINE
  5
A3
330
1F
100
AcDbEntity
  8
D1
100
AcDbLine
 10
6.0785205173
 20
5.9160748407
 30
0.0
 11
6.0697059856
 21
5.9300575318
 31
0.0
  0
LINE
  5
A4
330
1F
100
AcDbEntity
  8
D1
100
AcDbLine
 10
6.0822471438
 20
5.9389809694
 30
0.0
 11
6.0925681742
 21
5.9260702006
 31
0.0
  0
LINE
  5
A5
330
1F
100
AcDbEntity
  8
D1
100
AcDbLine
 10
6.1163513967
 20
5.9497635267
 30
0.0
 11
6.1034798059
 21
5.9601333758
 31
0.0
  0
LINE
  5
A6
330
1F
100
AcDbEntity
  8
D1
100
AcDbLine
 10
6.0346290986
 20
6.1786211655
 30
0.0
 11
6.0392300411
 21
6.194497026
 31
0.0
  0
LINE
  5
A7
330
1F
100
AcDbEntity
  8
D1
100
AcDbLine
 10
5.9535278607
 20
6.1945267452
 30
0.0
 11
5.9581177913
 21
6.1786476976
 31
0.0
  0
LINE
  5
A8
330
1F
100
AcDbEntity
  8
D1
100
AcDbLine
 10
5.9160305549
 20
6.1582007211
 30
0.0
 11
5.9063849211
 21
6.1716235884
 31
0.0
  0
LINE
  5
A9
330
1F
100
AcDbEntity
  8
D1
100
AcDbLine
 10
5.8803453623
 20
6.1479674479
 30
0.0
 11
5.8927835303
 21
6.1370815124
 31
0.0
  0
LINE
  5
AA
330
1F
100
AcDbEntity
  8
D1
100
AcDbLine
 10
5.8911829181
 20
5.9576992195
 30
0.0
 11
5.8785524775
 21
5.9470369689
 31
0.0
  0
LINE
  5
AB
330
1F
100
AcDbEntity
  8
D1
100
AcDbLine
 10
5.904899144
 20
5.9223761953
 30
0.0
 11
5.9147041154
 21
5.9356831165
 31
0.0
  0
LINE
  5
AC
330
1F
100
AcDbEntity
  8
D1
100
AcDbLine
 10
2.7669178786
 20
8.6577252662
 30
0.0
 11
2.7945489265
 21
8.5798355002
 31
0.0
  0
LINE
  5
AD
330
1F
100
AcDbEntity
  8
D1
100
AcDbLine
 10
2.9478620918
 20
8.6542122425
 30
0.0
 11
2.9037894337
 21
8.724125698
 31
0.0
  0
LINE
  5
AE
330
1F
100
AcDbEntity
  8
D1
100
AcDbLine
 10
2.9664952243
 20
8.7687428858
 30
0.0
 11
3.0181003765
 21
8.7041890422
 31
0.0
  0
LINE
  5
AF
330
1F
100
AcDbEntity
  8
D1
100
AcDbLine
 10
3.1370164889
 20
8.8226556725
 30
0.0
 11
3.0726585352
 21
8.874504918
 31
0.0
  0
LINE
  5
B0
330
1F
100
AcDbEntity
  8
D1
100
AcDbLine
 10
2.7284049986
 20
9.9669438666
 30
0.0
 11
2.7514097107
 21
10.0463231691
 31
0.0
  0
LINE
  5
B1
330
1F
100
AcDbEntity
  8
D1
100
AcDbLine
 10
2.3228988087
 20
10.0464717651
 30
0.0
 11
2.3458484622
 21
9.9670765268
 31
0.0
  0
LINE
  5
B2
330
1F
100
AcDbEntity
  8
D1
100
AcDbLine
 10
2.1354122798
 20
9.8648416444
 30
0.0
 11
2.0871841111
 21
9.9319559812
 31
0.0
  0
LINE
  5
B3
330
1F
100
AcDbEntity
  8
D1
100
AcDbLine
 10
1.9569863168
 20
9.8136752786
 30
0.0
 11
2.0191771572
 21
9.7592456008
 31
0.0
  0
LINE
  5
B4
330
1F
100
AcDbEntity
  8
D1
100
AcDbLine
 10
2.011174096
 20
8.8623341364
 30
0.0
 11
1.9480218928
 21
8.8090228834
 31
0.0
  0
LINE
  5
B5
330
1F
100
AcDbEntity
  8
D1
100
AcDbLine
 10
2.0797552254
 20
8.6857190154
 30
0.0
 11
2.1287800826
 21
8.7522536216
 31
0.0
  0
LINE
  5
B6
330
1F
100
AcDbEntity
  8
BORDER
  6
Continuous
370
   100
100
AcDbLine
 10
0.2033186419
 20
0.4921116273
 30
0.0
 11
17.2033186419
 21
0.4921116273
 31
0.0
  0
LINE
  5
B7
330
1F
100
AcDbEntity
  8
BORDER
  6
Continuous
370
   100
100
AcDbLine
 10
17.2033186419
 20
0.4921116273
 30
0.0
 11
17.2033186419
 21
11.4921116273
 31
0.0
  0
LINE
  5
B8
330
1F
100
AcDbEntity
  8
BORDER
  6
Continuous
370
   100
100
AcDbLine
 10
17.2033186419
 20
11.4921116273
 30
0.0
 11
0.2033186419
 21
11.4921116273
 31
0.0
  0
LINE
  5
B9
330
1F
100
AcDbEntity
  8
BORDER
  6
Continuous
370
   100
100
AcDbLine
 10
0.2033186419
 20
11.4921116273
 30
0.0
 11
0.2033186419
 21
0.4921116273
 31
0.0
  0
LINE
  5
BA
330
1F
100
AcDbEntity
  8
BORDER
370
    50
100
AcDbLine
 10
16.1380898315
 20
1.0611196273
 30
0.0
 11
16.1380898315
 21
0.7816156273
 31
0.0
  0
LINE
  5
BB
330
1F
100
AcDbEntity
  8
BORDER
370
    50
100
AcDbLine
 10
15.3078441832
 20
1.0611196273
 30
0.0
 11
15.3078441832
 21
0.4838757627
 31
0.0
  0
LINE
  5
BC
330
1F
100
AcDbEntity
  8
BORDER
370
    50
100
AcDbLine
 10
17.2091386865
 20
0.7816156273
 30
0.0
 11
13.9324386419
 21
0.7816156273
 31
0.0
  0
LINE
  5
BD
330
1F
100
AcDbEntity
  8
BORDER
370
    50
100
AcDbLine
 10
17.2134956583
 20
1.0611196273
 30
0.0
 11
13.9324386419
 21
1.0611196273
 31
0.0
  0
LINE
  5
BE
330
1F
100
AcDbEntity
  8
BORDER
370
    50
100
AcDbLine
 10
13.9324386419
 20
1.3406236273
 30
0.0
 11
17.2134956583
 21
1.3406236273
 31
0.0
  0
LINE
  5
BF
330
1F
100
AcDbEntity
  8
BORDER
370
    50
100
AcDbLine
 10
13.9324386419
 20
1.6201276273
 30
0.0
 11
17.1933186419
 21
1.6201276273
 31
0.0
  0
LINE
  5
C0
330
1F
100
AcDbEntity
  8
BORDER
370
    50
100
AcDbLine
 10
17.1933186419
 20
1.7782738356
 30
0.0
 11
13.9324386419
 21
1.7782738356
 31
0.0
  0
LINE
  5
C1
330
1F
100
AcDbEntity
  8
BORDER
370
    50
100
AcDbLine
 10
13.9324386419
 20
1.9366738356
 30
0.0
 11
17.1933186419
 21
1.9366738356
 31
0.0
  0
LINE
  5
C2
330
1F
100
AcDbEntity
  8
BORDER
100
AcDbLine
 10
13.9324386419
 20
1.9366738356
 30
0.0
 11
17.1933186419
 21
1.9366738356
 31
0.0
  0
LINE
  5
C3
330
1F
100
AcDbEntity
  8
BORDER
100
AcDbLine
 10
13.9324386419
 20
1.6201276273
 30
0.0
 11
17.1933186419
 21
1.6201276273
 31
0.0
  0
LINE
  5
C4
330
1F
100
AcDbEntity
  8
BORDER
100
AcDbLine
 10
13.9324386419
 20
1.3406236273
 30
0.0
 11
17.2134956583
 21
1.3406236273
 31
0.0
  0
LINE
  5
C5
330
1F
100
AcDbEntity
  8
BORDER
100
AcDbLine
 10
13.9324386419
 20
1.0611196273
 30
0.0
 11
17.2134956583
 21
1.0611196273
 31
0.0
  0
LINE
  5
C6
330
1F
100
AcDbEntity
  8
BORDER
100
AcDbLine
 10
13.9324386419
 20
0.7816156273
 30
0.0
 11
17.2091386865
 21
0.7816156273
 31
0.0
  0
LINE
  5
C7
330
1F
100
AcDbEntity
  8
BORDER
100
AcDbLine
 10
13.9324386419
 20
1.7782738356
 30
0.0
 11
17.1933186419
 21
1.7782738356
 31
0.0
  0
LINE
  5
C8
330
1F
100
AcDbEntity
  8
BORDER
100
AcDbLine
 10
17.1933186419
 20
2.2068610356
 30
0.0
 11
17.1933186419
 21
2.2254946356
 31
0.0
  0
LINE
  5
C9
330
1F
100
AcDbEntity
  8
BORDER
100
AcDbLine
 10
17.1933186419
 20
2.2254946356
 30
0.0
 11
13.9370970419
 21
2.2254946356
 31
0.0
  0
LINE
  5
CA
330
1F
100
AcDbEntity
  8
BORDER
100
AcDbLine
 10
13.9370970419
 20
2.2254946356
 30
0.0
 11
13.9370970419
 21
2.2068610356
 31
0.0
  0
LINE
  5
CB
330
1F
100
AcDbEntity
  8
BORDER
100
AcDbLine
 10
13.9370970419
 20
2.2068610356
 30
0.0
 11
17.1933186419
 21
2.2068610356
 31
0.0
  0
LINE
  5
CC
330
1F
100
AcDbEntity
  8
BORDER
100
AcDbLine
 10
17.1933186419
 20
2.5655578356
 30
0.0
 11
17.1933186419
 21
2.6121418356
 31
0.0
  0
LINE
  5
CD
330
1F
100
AcDbEntity
  8
BORDER
100
AcDbLine
 10
17.1933186419
 20
2.6121418356
 30
0.0
 11
13.9091466419
 21
2.6121418356
 31
0.0
  0
LINE
  5
CE
330
1F
100
AcDbEntity
  8
BORDER
100
AcDbLine
 10
13.9091466419
 20
2.6121418356
 30
0.0
 11
13.9557306419
 21
2.5655578356
 31
0.0
  0
LINE
  5
CF
330
1F
100
AcDbEntity
  8
BORDER
100
AcDbLine
 10
13.9557306419
 20
2.5655578356
 30
0.0
 11
17.1933186419
 21
2.5655578356
 31
0.0
  0
LINE
  5
D0
330
1F
100
AcDbEntity
  8
BORDER
370
    50
100
AcDbLine
 10
14.9920749093
 20
1.0611196273
 30
0.0
 11
14.9920749093
 21
0.7816156273
 31
0.0
  0
LINE
  5
D1
330
1F
100
AcDbEntity
  8
BORDER
370
    50
100
AcDbLine
 10
14.7204462463
 20
1.0611196273
 30
0.0
 11
14.7204462463
 21
0.7816156273
 31
0.0
  0
LINE
  5
D2
330
1F
100
AcDbEntity
  8
BORDER
370
    50
100
AcDbLine
 10
14.9580462463
 20
1.6201276273
 30
0.0
 11
14.9580462463
 21
1.3406236273
 31
0.0
  0
LINE
  5
D3
330
1F
100
AcDbEntity
  8
BORDER
370
    50
100
AcDbLine
 10
15.7630062463
 20
1.6201276273
 30
0.0
 11
15.7630062463
 21
1.3406236273
 31
0.0
  0
LINE
  5
D4
330
1F
100
AcDbEntity
  8
BORDER
100
AcDbLine
 10
14.9920749093
 20
1.0611196273
 30
0.0
 11
14.9920749093
 21
0.7816156273
 31
0.0
  0
LINE
  5
D5
330
1F
100
AcDbEntity
  8
BORDER
100
AcDbLine
 10
14.9580462463
 20
1.3406236273
 30
0.0
 11
14.9580462463
 21
1.6201276273
 31
0.0
  0
LINE
  5
D6
330
1F
100
AcDbEntity
  8
BORDER
100
AcDbLine
 10
15.7630062463
 20
1.3406236273
 30
0.0
 11
15.7630062463
 21
1.6201276273
 31
0.0
  0
LINE
  5
D7
330
1F
100
AcDbEntity
  8
BORDER
100
AcDbLine
 10
14.7204462463
 20
0.7816156273
 30
0.0
 11
14.7204462463
 21
1.0611196273
 31
0.0
  0
LINE
  5
D8
330
1F
100
AcDbEntity
  8
BORDER
100
AcDbLine
 10
13.9557306419
 20
2.5660614027
 30
0.0
 11
13.9091466419
 21
2.6126454027
 31
0.0
  0
LINE
  5
D9
330
1F
100
AcDbEntity
  8
BORDER
100
AcDbLine
 10
13.9091466419
 20
2.6126454027
 30
0.0
 11
13.9091466419
 21
0.5021116273
 31
0.0
  0
LINE
  5
DA
330
1F
100
AcDbEntity
  8
BORDER
100
AcDbLine
 10
13.9091466419
 20
0.5021116273
 30
0.0
 11
13.9557306419
 21
0.5021116273
 31
0.0
  0
LINE
  5
DB
330
1F
100
AcDbEntity
  8
BORDER
100
AcDbLine
 10
13.9557306419
 20
0.5021116273
 30
0.0
 11
13.9557306419
 21
2.5660614027
 31
0.0
  0
LINE
  5
DC
330
1F
100
AcDbEntity
  8
BORDER
100
AcDbLine
 10
16.1380898315
 20
1.0611196273
 30
0.0
 11
16.1380898315
 21
0.7816156273
 31
0.0
  0
LINE
  5
DD
330
1F
100
AcDbEntity
  8
BORDER
100
AcDbLine
 10
15.3078441832
 20
0.4838757627
 30
0.0
 11
15.3078441832
 21
1.0611196273
 31
0.0
  0
LINE
  5
DE
330
1F
100
AcDbEntity
  8
BORDER
100
AcDbLine
 10
15.9023485843
 20
2.4702916972
 30
0.0
 11
15.9183220382
 21
2.4623102862
 31
0.0
  0
LINE
  5
DF
330
1F
100
AcDbEntity
  8
BORDER
100
AcDbLine
 10
15.9183220382
 20
2.4623102862
 30
0.0
 11
15.9110840669
 21
2.501967922
 31
0.0
  0
LINE
  5
E0
330
1F
100
AcDbEntity
  8
BORDER
100
AcDbLine
 10
15.9110840669
 20
2.501967922
 30
0.0
 11
15.8958593687
 21
2.4917417392
 31
0.0
  0
LINE
  5
E1
330
1F
100
AcDbEntity
  8
BORDER
100
AcDbLine
 10
15.8958593687
 20
2.4917417392
 30
0.0
 11
15.9023485843
 21
2.4702916972
 31
0.0
  0
LINE
  5
E2
330
1F
100
AcDbEntity
  8
BORDER
100
AcDbLine
 10
15.8229149009
 20
2.4991077951
 30
0.0
 11
15.8104902937
 21
2.5126528903
 31
0.0
  0
LINE
  5
E3
330
1F
100
AcDbEntity
  8
BORDER
100
AcDbLine
 10
15.8104902937
 20
2.5126528903
 30
0.0
 11
15.7933217456
 21
2.4884974704
 31
0.0
  0
LINE
  5
E4
330
1F
100
AcDbEntity
  8
BORDER
100
AcDbLine
 10
15.7933217456
 20
2.4884974704
 30
0.0
 11
15.8075535684
 21
2.4826279291
 31
0.0
  0
LINE
  5
E5
330
1F
100
AcDbEntity
  8
BORDER
100
AcDbLine
 10
15.8075535684
 20
2.4826279291
 30
0.0
 11
15.8229149009
 21
2.4991077951
 31
0.0
  0
LINE
  5
E6
330
1F
100
AcDbEntity
  8
BORDER
100
AcDbLine
 10
15.8075535684
 20
2.4826279291
 30
0.0
 11
15.7933217456
 21
2.4884974704
 31
0.0
  0
LINE
  5
E7
330
1F
100
AcDbEntity
  8
BORDER
100
AcDbLine
 10
15.7933217456
 20
2.4884974704
 30
0.0
 11
15.7951289612
 21
2.450345452
 31
0.0
  0
LINE
  5
E8
330
1F
100
AcDbEntity
  8
BORDER
100
AcDbLine
 10
15.7951289612
 20
2.450345452
 30
0.0
 11
15.8100384898
 21
2.4564407449
 31
0.0
  0
LINE
  5
E9
330
1F
100
AcDbEntity
  8
BORDER
100
AcDbLine
 10
15.8100384898
 20
2.4564407449
 30
0.0
 11
15.8075535684
 21
2.4826279291
 31
0.0
  0
LINE
  5
EA
330
1F
100
AcDbEntity
  8
BORDER
100
AcDbLine
 10
14.7665388944
 20
2.4775501512
 30
0.0
 11
14.7665388944
 21
2.5117884493
 31
0.0
  0
LINE
  5
EB
330
1F
100
AcDbEntity
  8
BORDER
100
AcDbLine
 10
14.7665388944
 20
2.5117884493
 30
0.0
 11
14.8576461702
 21
2.5174975861
 31
0.0
  0
LINE
  5
EC
330
1F
100
AcDbEntity
  8
BORDER
100
AcDbLine
 10
14.8576461702
 20
2.5174975861
 30
0.0
 11
14.8335050741
 21
2.4775501512
 31
0.0
  0
LINE
  5
ED
330
1F
100
AcDbEntity
  8
BORDER
100
AcDbLine
 10
14.8335050741
 20
2.4775501512
 30
0.0
 11
14.7665388944
 21
2.4775501512
 31
0.0
  0
LINE
  5
EE
330
1F
100
AcDbEntity
  8
BORDER
100
AcDbLine
 10
14.8738970934
 20
2.4614445768
 30
0.0
 11
14.9145857701
 21
2.4826167809
 31
0.0
  0
LINE
  5
EF
330
1F
100
AcDbEntity
  8
BORDER
100
AcDbLine
 10
14.9145857701
 20
2.4826167809
 30
0.0
 11
14.8744396091
 21
2.5103035094
 31
0.0
  0
LINE
  5
F0
330
1F
100
AcDbEntity
  8
BORDER
100
AcDbLine
 10
14.8744396091
 20
2.5103035094
 30
0.0
 11
14.8559940756
 21
2.4804452728
 31
0.0
  0
LINE
  5
F1
330
1F
100
AcDbEntity
  8
BORDER
100
AcDbLine
 10
14.8559940756
 20
2.4804452728
 30
0.0
 11
14.8738970934
 21
2.4614445768
 31
0.0
  0
LINE
  5
F2
330
1F
100
AcDbEntity
  8
BORDER
100
AcDbLine
 10
14.8559940756
 20
2.4804452728
 30
0.0
 11
14.8744396091
 21
2.5103035094
 31
0.0
  0
LINE
  5
F3
330
1F
100
AcDbEntity
  8
BORDER
100
AcDbLine
 10
14.8744396091
 20
2.5103035094
 30
0.0
 11
14.8576461702
 21
2.5174975861
 31
0.0
  0
LINE
  5
F4
330
1F
100
AcDbEntity
  8
BORDER
100
AcDbLine
 10
14.8576461702
 20
2.5174975861
 30
0.0
 11
14.8335050741
 21
2.4775501512
 31
0.0
  0
LINE
  5
F5
330
1F
100
AcDbEntity
  8
BORDER
100
AcDbLine
 10
14.8335050741
 20
2.4775501512
 30
0.0
 11
14.8559940756
 21
2.4804452728
 31
0.0
  0
LINE
  5
F6
330
1F
100
AcDbEntity
  8
BORDER
100
AcDbLine
 10
14.9814888526
 20
2.3000085361
 30
0.0
 11
14.9814888526
 21
2.5174975861
 31
0.0
  0
LINE
  5
F7
330
1F
100
AcDbEntity
  8
BORDER
100
AcDbLine
 10
14.9264615026
 20
2.5174975861
 30
0.0
 11
14.9264615026
 21
2.2554625861
 31
0.0
  0
LINE
  5
F8
330
1F
100
AcDbEntity
  8
BORDER
100
AcDbLine
 10
15.1099777149
 20
2.3000085361
 30
0.0
 11
15.1871863276
 21
2.5174975861
 31
0.0
  0
LINE
  5
F9
330
1F
100
AcDbEntity
  8
BORDER
100
AcDbLine
 10
15.1871863276
 20
2.5174975861
 30
0.0
 11
15.2461442026
 21
2.5174975861
 31
0.0
  0
LINE
  5
FA
330
1F
100
AcDbEntity
  8
BORDER
100
AcDbLine
 10
15.2461442026
 20
2.5174975861
 30
0.0
 11
15.3325875768
 21
2.2739951236
 31
0.0
  0
LINE
  5
FB
330
1F
100
AcDbEntity
  8
BORDER
100
AcDbLine
 10
15.3325875768
 20
2.5174975861
 30
0.0
 11
15.3325875768
 21
2.2739951236
 31
0.0
  0
LINE
  5
FC
330
1F
100
AcDbEntity
  8
BORDER
100
AcDbLine
 10
15.5466659146
 20
2.3342106717
 30
0.0
 11
15.5886817741
 21
2.3342106717
 31
0.0
  0
LINE
  5
FD
330
1F
100
AcDbEntity
  8
BORDER
100
AcDbLine
 10
15.6759657327
 20
2.3583116843
 30
0.0
 11
15.5900722124
 21
2.3783286881
 31
0.0
  0
LINE
  5
FE
330
1F
100
AcDbEntity
  8
BORDER
100
AcDbLine
 10
15.7439739868
 20
2.4452966157
 30
0.0
 11
15.6921598094
 21
2.4452966157
 31
0.0
  0
LINE
  5
FF
330
1F
100
AcDbEntity
  8
BORDER
100
AcDbLine
 10
14.68785378
 20
2.471408162
 30
0.0
 11
14.6488850663
 21
2.4530144504
 31
0.0
  0
LINE
  5
100
330
1F
100
AcDbEntity
  8
BORDER
100
AcDbLine
 10
14.6488850663
 20
2.4530144504
 30
0.0
 11
14.6224157513
 21
2.4750869043
 31
0.0
  0
LINE
  5
101
330
1F
100
AcDbEntity
  8
BORDER
100
AcDbLine
 10
14.6224157513
 20
2.4750869043
 30
0.0
 11
14.6356504088
 21
2.512610076
 31
0.0
  0
LINE
  5
102
330
1F
100
AcDbEntity
  8
BORDER
100
AcDbLine
 10
14.6356504088
 20
2.512610076
 30
0.0
 11
14.68785378
 21
2.471408162
 31
0.0
  0
LINE
  5
103
330
1F
100
AcDbEntity
  8
BORDER
100
AcDbLine
 10
14.6356504088
 20
2.512610076
 30
0.0
 11
14.6224157513
 21
2.4750869043
 31
0.0
  0
LINE
  5
104
330
1F
100
AcDbEntity
  8
BORDER
100
AcDbLine
 10
14.6224157513
 20
2.4750869043
 30
0.0
 11
14.5865217559
 21
2.4851546187
 31
0.0
  0
LINE
  5
105
330
1F
100
AcDbEntity
  8
BORDER
100
AcDbLine
 10
14.5865217559
 20
2.4851546187
 30
0.0
 11
14.5876286545
 21
2.5228142383
 31
0.0
  0
LINE
  5
106
330
1F
100
AcDbEntity
  8
BORDER
100
AcDbLine
 10
14.5876286545
 20
2.5228142383
 30
0.0
 11
14.6356504088
 21
2.512610076
 31
0.0
  0
LINE
  5
107
330
1F
100
AcDbEntity
  8
BORDER
100
AcDbLine
 10
14.517894041
 20
2.4984462492
 30
0.0
 11
14.5378182163
 21
2.4685400807
 31
0.0
  0
LINE
  5
108
330
1F
100
AcDbEntity
  8
BORDER
100
AcDbLine
 10
14.5378182163
 20
2.4685400807
 30
0.0
 11
14.5201078382
 21
2.431988097
 31
0.0
  0
LINE
  5
109
330
1F
100
AcDbEntity
  8
BORDER
100
AcDbLine
 10
14.5201078382
 20
2.431988097
 30
0.0
 11
14.4824732849
 21
2.4585713579
 31
0.0
  0
LINE
  5
10A
330
1F
100
AcDbEntity
  8
BORDER
100
AcDbLine
 10
14.4824732849
 20
2.4585713579
 30
0.0
 11
14.517894041
 21
2.4984462492
 31
0.0
  0
LINE
  5
10B
330
1F
100
AcDbEntity
  8
BORDER
100
AcDbLine
 10
14.5876286545
 20
2.5228142383
 30
0.0
 11
14.5865217559
 21
2.4851546187
 31
0.0
  0
LINE
  5
10C
330
1F
100
AcDbEntity
  8
BORDER
100
AcDbLine
 10
14.5865217559
 20
2.4851546187
 30
0.0
 11
14.5378182163
 21
2.4685400807
 31
0.0
  0
LINE
  5
10D
330
1F
100
AcDbEntity
  8
BORDER
100
AcDbLine
 10
14.5378182163
 20
2.4685400807
 30
0.0
 11
14.517894041
 21
2.4984462492
 31
0.0
  0
LINE
  5
10E
330
1F
100
AcDbEntity
  8
BORDER
100
AcDbLine
 10
14.517894041
 20
2.4984462492
 30
0.0
 11
14.5876286545
 21
2.5228142383
 31
0.0
  0
LINE
  5
10F
330
1F
100
AcDbEntity
  8
BORDER
100
AcDbLine
 10
14.0303018026
 20
2.5174975861
 30
0.0
 11
14.2504112026
 21
2.5174975861
 31
0.0
  0
LINE
  5
110
330
1F
100
AcDbEntity
  8
BORDER
100
AcDbLine
 10
14.2504112026
 20
2.5174975861
 30
0.0
 11
14.2504112026
 21
2.4742618111
 31
0.0
  0
LINE
  5
111
330
1F
100
AcDbEntity
  8
BORDER
100
AcDbLine
 10
14.2504112026
 20
2.4742618111
 30
0.0
 11
14.0303018026
 21
2.4742618111
 31
0.0
  0
LINE
  5
112
330
1F
100
AcDbEntity
  8
BORDER
100
AcDbLine
 10
14.0303018026
 20
2.4742618111
 30
0.0
 11
14.0303018026
 21
2.5174975861
 31
0.0
  0
LINE
  5
113
330
1F
100
AcDbEntity
  8
BORDER
100
AcDbLine
 10
14.2504112026
 20
2.5174975861
 30
0.0
 11
14.3028182026
 21
2.5174975861
 31
0.0
  0
LINE
  5
114
330
1F
100
AcDbEntity
  8
BORDER
100
AcDbLine
 10
14.3028182026
 20
2.5174975861
 30
0.0
 11
14.3028182026
 21
2.2554625861
 31
0.0
  0
LINE
  5
115
330
1F
100
AcDbEntity
  8
BORDER
100
AcDbLine
 10
14.3028182026
 20
2.2554625861
 30
0.0
 11
14.2504112026
 21
2.2554625861
 31
0.0
  0
LINE
  5
116
330
1F
100
AcDbEntity
  8
BORDER
100
AcDbLine
 10
14.2504112026
 20
2.2554625861
 30
0.0
 11
14.2504112026
 21
2.5174975861
 31
0.0
  0
LINE
  5
117
330
1F
100
AcDbEntity
  8
BORDER
100
AcDbLine
 10
14.4115627276
 20
2.5174975861
 30
0.0
 11
14.4639697276
 21
2.5174975861
 31
0.0
  0
LINE
  5
118
330
1F
100
AcDbEntity
  8
BORDER
100
AcDbLine
 10
14.4639697276
 20
2.5174975861
 30
0.0
 11
14.4639697276
 21
2.2554625861
 31
0.0
  0
LINE
  5
119
330
1F
100
AcDbEntity
  8
BORDER
100
AcDbLine
 10
14.4639697276
 20
2.2554625861
 30
0.0
 11
14.4115627276
 21
2.2554625861
 31
0.0
  0
LINE
  5
11A
330
1F
100
AcDbEntity
  8
BORDER
100
AcDbLine
 10
14.4115627276
 20
2.2554625861
 30
0.0
 11
14.4115627276
 21
2.5174975861
 31
0.0
  0
LINE
  5
11B
330
1F
100
AcDbEntity
  8
BORDER
100
AcDbLine
 10
14.7130090985
 20
2.2554625861
 30
0.0
 11
14.7130090985
 21
2.5174975861
 31
0.0
  0
LINE
  5
11C
330
1F
100
AcDbEntity
  8
BORDER
100
AcDbLine
 10
14.7130090985
 20
2.5174975861
 30
0.0
 11
14.7665388944
 21
2.5117884493
 31
0.0
  0
LINE
  5
11D
330
1F
100
AcDbEntity
  8
BORDER
100
AcDbLine
 10
14.7665388944
 20
2.5117884493
 30
0.0
 11
14.7665388944
 21
2.2554625861
 31
0.0
  0
LINE
  5
11E
330
1F
100
AcDbEntity
  8
BORDER
100
AcDbLine
 10
14.7665388944
 20
2.2554625861
 30
0.0
 11
14.7130090985
 21
2.2554625861
 31
0.0
  0
LINE
  5
11F
330
1F
100
AcDbEntity
  8
BORDER
100
AcDbLine
 10
14.9264615026
 20
2.2554625861
 30
0.0
 11
15.1125063526
 21
2.2554625861
 31
0.0
  0
LINE
  5
120
330
1F
100
AcDbEntity
  8
BORDER
100
AcDbLine
 10
15.1099777149
 20
2.3000085361
 30
0.0
 11
14.9814888526
 21
2.3000085361
 31
0.0
  0
LINE
  5
121
330
1F
100
AcDbEntity
  8
BORDER
100
AcDbLine
 10
14.1141530026
 20
2.2554625861
 30
0.0
 11
14.1665600026
 21
2.2554625861
 31
0.0
  0
LINE
  5
122
330
1F
100
AcDbEntity
  8
BORDER
100
AcDbLine
 10
14.1665600026
 20
2.2554625861
 30
0.0
 11
14.1665600026
 21
2.4742618111
 31
0.0
  0
LINE
  5
123
330
1F
100
AcDbEntity
  8
BORDER
100
AcDbLine
 10
14.1665600026
 20
2.4742618111
 30
0.0
 11
14.1141530026
 21
2.4742618111
 31
0.0
  0
LINE
  5
124
330
1F
100
AcDbEntity
  8
BORDER
100
AcDbLine
 10
14.1141530026
 20
2.4742618111
 30
0.0
 11
14.1141530026
 21
2.2554625861
 31
0.0
  0
LINE
  5
125
330
1F
100
AcDbEntity
  8
BORDER
100
AcDbLine
 10
14.4115627276
 20
2.4153039361
 30
0.0
 11
14.3028182026
 21
2.4153039361
 31
0.0
  0
LINE
  5
126
330
1F
100
AcDbEntity
  8
BORDER
100
AcDbLine
 10
14.3028182026
 20
2.4153039361
 30
0.0
 11
14.3028182026
 21
2.3707579861
 31
0.0
  0
LINE
  5
127
330
1F
100
AcDbEntity
  8
BORDER
100
AcDbLine
 10
14.3028182026
 20
2.3707579861
 30
0.0
 11
14.4115627276
 21
2.3707579861
 31
0.0
  0
LINE
  5
128
330
1F
100
AcDbEntity
  8
BORDER
100
AcDbLine
 10
14.4115627276
 20
2.3707579861
 30
0.0
 11
14.4115627276
 21
2.4153039361
 31
0.0
  0
LINE
  5
129
330
1F
100
AcDbEntity
  8
BORDER
100
AcDbLine
 10
14.7099115425
 20
2.3970975671
 30
0.0
 11
14.6643255
 21
2.4015120579
 31
0.0
  0
LINE
  5
12A
330
1F
100
AcDbEntity
  8
BORDER
100
AcDbLine
 10
14.6643255
 20
2.4015120579
 30
0.0
 11
14.6488850663
 21
2.4530144504
 31
0.0
  0
LINE
  5
12B
330
1F
100
AcDbEntity
  8
BORDER
100
AcDbLine
 10
14.6488850663
 20
2.4530144504
 30
0.0
 11
14.68785378
 21
2.471408162
 31
0.0
  0
LINE
  5
12C
330
1F
100
AcDbEntity
  8
BORDER
100
AcDbLine
 10
14.68785378
 20
2.471408162
 30
0.0
 11
14.7099115425
 21
2.3970975671
 31
0.0
  0
LINE
  5
12D
330
1F
100
AcDbEntity
  8
BORDER
100
AcDbLine
 10
14.4824732849
 20
2.4585713579
 30
0.0
 11
14.5201078382
 21
2.431988097
 31
0.0
  0
LINE
  5
12E
330
1F
100
AcDbEntity
  8
BORDER
100
AcDbLine
 10
14.5201078382
 20
2.431988097
 30
0.0
 11
14.5099211625
 21
2.3823825978
 31
0.0
  0
LINE
  5
12F
330
1F
100
AcDbEntity
  8
BORDER
100
AcDbLine
 10
14.5099211625
 20
2.3823825978
 30
0.0
 11
14.4672761549
 21
2.3860613401
 31
0.0
  0
LINE
  5
130
330
1F
100
AcDbEntity
  8
BORDER
100
AcDbLine
 10
14.4672761549
 20
2.3860613401
 30
0.0
 11
14.4824732849
 21
2.4585713579
 31
0.0
  0
LINE
  5
131
330
1F
100
AcDbEntity
  8
BORDER
100
AcDbLine
 10
14.5885938487
 20
2.2543623651
 30
0.0
 11
14.5885938487
 21
2.287471046
 31
0.0
  0
LINE
  5
132
330
1F
100
AcDbEntity
  8
BORDER
100
AcDbLine
 10
14.5885938487
 20
2.287471046
 30
0.0
 11
14.6385914438
 21
2.3029217637
 31
0.0
  0
LINE
  5
133
330
1F
100
AcDbEntity
  8
BORDER
100
AcDbLine
 10
14.6385914438
 20
2.3029217637
 30
0.0
 11
14.6569729125
 21
2.2779063159
 31
0.0
  0
LINE
  5
134
330
1F
100
AcDbEntity
  8
BORDER
100
AcDbLine
 10
14.6569729125
 20
2.2779063159
 30
0.0
 11
14.5885938487
 21
2.2543623651
 31
0.0
  0
LINE
  5
135
330
1F
100
AcDbEntity
  8
BORDER
100
AcDbLine
 10
14.4863928824
 20
2.3110149968
 30
0.0
 11
14.5238910787
 21
2.3249942176
 31
0.0
  0
LINE
  5
136
330
1F
100
AcDbEntity
  8
BORDER
100
AcDbLine
 10
14.5238910787
 20
2.3249942176
 30
0.0
 11
14.5606540162
 21
2.2904140398
 31
0.0
  0
LINE
  5
137
330
1F
100
AcDbEntity
  8
BORDER
100
AcDbLine
 10
14.5606540162
 20
2.2904140398
 30
0.0
 11
14.5415372887
 21
2.2631913466
 31
0.0
  0
LINE
  5
138
330
1F
100
AcDbEntity
  8
BORDER
100
AcDbLine
 10
14.5415372887
 20
2.2631913466
 30
0.0
 11
14.4863928824
 21
2.3110149968
 31
0.0
  0
LINE
  5
139
330
1F
100
AcDbEntity
  8
BORDER
100
AcDbLine
 10
14.5415372887
 20
2.2631913466
 30
0.0
 11
14.5606540162
 21
2.2904140398
 31
0.0
  0
LINE
  5
13A
330
1F
100
AcDbEntity
  8
BORDER
100
AcDbLine
 10
14.5606540162
 20
2.2904140398
 30
0.0
 11
14.5885938487
 21
2.287471046
 31
0.0
  0
LINE
  5
13B
330
1F
100
AcDbEntity
  8
BORDER
100
AcDbLine
 10
14.5885938487
 20
2.287471046
 30
0.0
 11
14.5885938487
 21
2.2543623651
 31
0.0
  0
LINE
  5
13C
330
1F
100
AcDbEntity
  8
BORDER
100
AcDbLine
 10
14.5885938487
 20
2.2543623651
 30
0.0
 11
14.5415372887
 21
2.2631913466
 31
0.0
  0
LINE
  5
13D
330
1F
100
AcDbEntity
  8
BORDER
100
AcDbLine
 10
14.4672761549
 20
2.3860613401
 30
0.0
 11
14.5099211625
 21
2.3823825978
 31
0.0
  0
LINE
  5
13E
330
1F
100
AcDbEntity
  8
BORDER
100
AcDbLine
 10
14.5099211625
 20
2.3823825978
 30
0.0
 11
14.5238910787
 21
2.3249942176
 31
0.0
  0
LINE
  5
13F
330
1F
100
AcDbEntity
  8
BORDER
100
AcDbLine
 10
14.5238910787
 20
2.3249942176
 30
0.0
 11
14.4863928824
 21
2.3110149968
 31
0.0
  0
LINE
  5
140
330
1F
100
AcDbEntity
  8
BORDER
100
AcDbLine
 10
14.4863928824
 20
2.3110149968
 30
0.0
 11
14.4672761549
 21
2.3860613401
 31
0.0
  0
LINE
  5
141
330
1F
100
AcDbEntity
  8
BORDER
100
AcDbLine
 10
14.6569729125
 20
2.2779063159
 30
0.0
 11
14.6385914438
 21
2.3029217637
 31
0.0
  0
LINE
  5
142
330
1F
100
AcDbEntity
  8
BORDER
100
AcDbLine
 10
14.6385914438
 20
2.3029217637
 30
0.0
 11
14.6628549825
 21
2.3514811623
 31
0.0
  0
LINE
  5
143
330
1F
100
AcDbEntity
  8
BORDER
100
AcDbLine
 10
14.6628549825
 20
2.3514811623
 30
0.0
 11
14.69373585
 21
2.3191082299
 31
0.0
  0
LINE
  5
144
330
1F
100
AcDbEntity
  8
BORDER
100
AcDbLine
 10
14.69373585
 20
2.3191082299
 30
0.0
 11
14.6569729125
 21
2.2779063159
 31
0.0
  0
LINE
  5
145
330
1F
100
AcDbEntity
  8
BORDER
100
AcDbLine
 10
14.69373585
 20
2.3191082299
 30
0.0
 11
14.6628549825
 21
2.3514811623
 31
0.0
  0
LINE
  5
146
330
1F
100
AcDbEntity
  8
BORDER
100
AcDbLine
 10
14.6628549825
 20
2.3514811623
 30
0.0
 11
14.6643255
 21
2.4015120579
 31
0.0
  0
LINE
  5
147
330
1F
100
AcDbEntity
  8
BORDER
100
AcDbLine
 10
14.6643255
 20
2.4015120579
 30
0.0
 11
14.7099115425
 21
2.3970975671
 31
0.0
  0
LINE
  5
148
330
1F
100
AcDbEntity
  8
BORDER
100
AcDbLine
 10
14.7099115425
 20
2.3970975671
 30
0.0
 11
14.69373585
 21
2.3191082299
 31
0.0
  0
LINE
  5
149
330
1F
100
AcDbEntity
  8
BORDER
100
AcDbLine
 10
14.8793222503
 20
2.4397294956
 30
0.0
 11
14.920010927
 21
2.426700447
 31
0.0
  0
LINE
  5
14A
330
1F
100
AcDbEntity
  8
BORDER
100
AcDbLine
 10
14.920010927
 20
2.426700447
 30
0.0
 11
14.9145857701
 21
2.4826167809
 31
0.0
  0
LINE
  5
14B
330
1F
100
AcDbEntity
  8
BORDER
100
AcDbLine
 10
14.9145857701
 20
2.4826167809
 30
0.0
 11
14.8738970934
 21
2.4614445768
 31
0.0
  0
LINE
  5
14C
330
1F
100
AcDbEntity
  8
BORDER
100
AcDbLine
 10
14.8738970934
 20
2.4614445768
 30
0.0
 11
14.8793222503
 21
2.4397294956
 31
0.0
  0
LINE
  5
14D
330
1F
100
AcDbEntity
  8
BORDER
100
AcDbLine
 10
14.7665388944
 20
2.3996862789
 30
0.0
 11
14.7665388944
 21
2.3601858112
 31
0.0
  0
LINE
  5
14E
330
1F
100
AcDbEntity
  8
BORDER
100
AcDbLine
 10
14.7665388944
 20
2.3601858112
 30
0.0
 11
14.8175765408
 21
2.3601858112
 31
0.0
  0
LINE
  5
14F
330
1F
100
AcDbEntity
  8
BORDER
100
AcDbLine
 10
14.8175765408
 20
2.3601858112
 30
0.0
 11
14.8335050741
 21
2.3996862789
 31
0.0
  0
LINE
  5
150
330
1F
100
AcDbEntity
  8
BORDER
100
AcDbLine
 10
14.8335050741
 20
2.3996862789
 30
0.0
 11
14.7665388944
 21
2.3996862789
 31
0.0
  0
LINE
  5
151
330
1F
100
AcDbEntity
  8
BORDER
100
AcDbLine
 10
14.8404403395
 20
2.3621517024
 30
0.0
 11
14.8661469145
 21
2.3803554174
 31
0.0
  0
LINE
  5
152
330
1F
100
AcDbEntity
  8
BORDER
100
AcDbLine
 10
14.8661469145
 20
2.3803554174
 30
0.0
 11
14.8335050741
 21
2.3996862789
 31
0.0
  0
LINE
  5
153
330
1F
100
AcDbEntity
  8
BORDER
100
AcDbLine
 10
14.8335050741
 20
2.3996862789
 30
0.0
 11
14.8175765408
 21
2.3601858112
 31
0.0
  0
LINE
  5
154
330
1F
100
AcDbEntity
  8
BORDER
100
AcDbLine
 10
14.8175765408
 20
2.3601858112
 30
0.0
 11
14.8404403395
 21
2.3621517024
 31
0.0
  0
LINE
  5
155
330
1F
100
AcDbEntity
  8
BORDER
100
AcDbLine
 10
14.8546591789
 20
2.3480004032
 30
0.0
 11
14.8830000617
 21
2.3678522345
 31
0.0
  0
LINE
  5
156
330
1F
100
AcDbEntity
  8
BORDER
100
AcDbLine
 10
14.8830000617
 20
2.3678522345
 30
0.0
 11
14.8661469145
 21
2.3803554174
 31
0.0
  0
LINE
  5
157
330
1F
100
AcDbEntity
  8
BORDER
100
AcDbLine
 10
14.8661469145
 20
2.3803554174
 30
0.0
 11
14.8404403395
 21
2.3621517024
 31
0.0
  0
LINE
  5
158
330
1F
100
AcDbEntity
  8
BORDER
100
AcDbLine
 10
14.8404403395
 20
2.3621517024
 30
0.0
 11
14.8546591789
 21
2.3480004032
 31
0.0
  0
LINE
  5
159
330
1F
100
AcDbEntity
  8
BORDER
100
AcDbLine
 10
14.86105882
 20
2.3987603126
 30
0.0
 11
14.8810844778
 21
2.3894241564
 31
0.0
  0
LINE
  5
15A
330
1F
100
AcDbEntity
  8
BORDER
100
AcDbLine
 10
14.8810844778
 20
2.3894241564
 30
0.0
 11
14.920010927
 21
2.426700447
 31
0.0
  0
LINE
  5
15B
330
1F
100
AcDbEntity
  8
BORDER
100
AcDbLine
 10
14.920010927
 20
2.426700447
 30
0.0
 11
14.8793222503
 21
2.4397294956
 31
0.0
  0
LINE
  5
15C
330
1F
100
AcDbEntity
  8
BORDER
100
AcDbLine
 10
14.8793222503
 20
2.4397294956
 30
0.0
 11
14.86105882
 21
2.3987603126
 31
0.0
  0
LINE
  5
15D
330
1F
100
AcDbEntity
  8
BORDER
100
AcDbLine
 10
14.86105882
 20
2.3987603126
 30
0.0
 11
14.8810844778
 21
2.3894241564
 31
0.0
  0
LINE
  5
15E
330
1F
100
AcDbEntity
  8
BORDER
100
AcDbLine
 10
14.8810844778
 20
2.3894241564
 30
0.0
 11
14.8661469145
 21
2.3803554174
 31
0.0
  0
LINE
  5
15F
330
1F
100
AcDbEntity
  8
BORDER
100
AcDbLine
 10
14.8661469145
 20
2.3803554174
 30
0.0
 11
14.8335050741
 21
2.3996862789
 31
0.0
  0
LINE
  5
160
330
1F
100
AcDbEntity
  8
BORDER
100
AcDbLine
 10
14.8335050741
 20
2.3996862789
 30
0.0
 11
14.86105882
 21
2.3987603126
 31
0.0
  0
LINE
  5
161
330
1F
100
AcDbEntity
  8
BORDER
100
AcDbLine
 10
14.8740446187
 20
2.2554625861
 30
0.0
 11
14.9280688328
 21
2.2554625861
 31
0.0
  0
LINE
  5
162
330
1F
100
AcDbEntity
  8
BORDER
100
AcDbLine
 10
14.9280688328
 20
2.2554625861
 30
0.0
 11
14.9201750903
 21
2.2678576474
 31
0.0
  0
LINE
  5
163
330
1F
100
AcDbEntity
  8
BORDER
100
AcDbLine
 10
14.9201750903
 20
2.2678576474
 30
0.0
 11
14.8715695693
 21
2.2627488358
 31
0.0
  0
LINE
  5
164
330
1F
100
AcDbEntity
  8
BORDER
100
AcDbLine
 10
14.8715695693
 20
2.2627488358
 30
0.0
 11
14.8740446187
 21
2.2554625861
 31
0.0
  0
LINE
  5
165
330
1F
100
AcDbEntity
  8
BORDER
100
AcDbLine
 10
14.8656535654
 20
2.3160515336
 30
0.0
 11
14.8696982295
 21
2.268840556
 31
0.0
  0
LINE
  5
166
330
1F
100
AcDbEntity
  8
BORDER
100
AcDbLine
 10
14.8696982295
 20
2.268840556
 30
0.0
 11
14.9211866855
 21
2.2728257052
 31
0.0
  0
LINE
  5
167
330
1F
100
AcDbEntity
  8
BORDER
100
AcDbLine
 10
14.9211866855
 20
2.2728257052
 30
0.0
 11
14.9154428424
 21
2.3311207501
 31
0.0
  0
LINE
  5
168
330
1F
100
AcDbEntity
  8
BORDER
100
AcDbLine
 10
14.9154428424
 20
2.3311207501
 30
0.0
 11
14.8656535654
 21
2.3160515336
 31
0.0
  0
LINE
  5
169
330
1F
100
AcDbEntity
  8
BORDER
100
AcDbLine
 10
14.8715695693
 20
2.2627488358
 30
0.0
 11
14.9201750903
 21
2.2678576474
 31
0.0
  0
LINE
  5
16A
330
1F
100
AcDbEntity
  8
BORDER
100
AcDbLine
 10
14.9201750903
 20
2.2678576474
 30
0.0
 11
14.9211866855
 21
2.2728257052
 31
0.0
  0
LINE
  5
16B
330
1F
100
AcDbEntity
  8
BORDER
100
AcDbLine
 10
14.9211866855
 20
2.2728257052
 30
0.0
 11
14.8696982295
 21
2.268840556
 31
0.0
  0
LINE
  5
16C
330
1F
100
AcDbEntity
  8
BORDER
100
AcDbLine
 10
14.8696982295
 20
2.268840556
 30
0.0
 11
14.8715695693
 21
2.2627488358
 31
0.0
  0
LINE
  5
16D
330
1F
100
AcDbEntity
  8
BORDER
100
AcDbLine
 10
14.8656535654
 20
2.3160515336
 30
0.0
 11
14.9154428424
 21
2.3311207501
 31
0.0
  0
LINE
  5
16E
330
1F
100
AcDbEntity
  8
BORDER
100
AcDbLine
 10
14.9154428424
 20
2.3311207501
 30
0.0
 11
14.9092153782
 21
2.3465824153
 31
0.0
  0
LINE
  5
16F
330
1F
100
AcDbEntity
  8
BORDER
100
AcDbLine
 10
14.9092153782
 20
2.3465824153
 30
0.0
 11
14.8667040541
 21
2.3316935418
 31
0.0
  0
LINE
  5
170
330
1F
100
AcDbEntity
  8
BORDER
100
AcDbLine
 10
14.8667040541
 20
2.3316935418
 30
0.0
 11
14.8656535654
 21
2.3160515336
 31
0.0
  0
LINE
  5
171
330
1F
100
AcDbEntity
  8
BORDER
100
AcDbLine
 10
14.8667040541
 20
2.3316935418
 30
0.0
 11
14.9092153782
 21
2.3465824153
 31
0.0
  0
LINE
  5
172
330
1F
100
AcDbEntity
  8
BORDER
100
AcDbLine
 10
14.9092153782
 20
2.3465824153
 30
0.0
 11
14.8830000617
 21
2.3678522345
 31
0.0
  0
LINE
  5
173
330
1F
100
AcDbEntity
  8
BORDER
100
AcDbLine
 10
14.8830000617
 20
2.3678522345
 30
0.0
 11
14.8546591789
 21
2.3480004032
 31
0.0
  0
LINE
  5
174
330
1F
100
AcDbEntity
  8
BORDER
100
AcDbLine
 10
14.8546591789
 20
2.3480004032
 30
0.0
 11
14.8667040541
 21
2.3316935418
 31
0.0
  0
LINE
  5
175
330
1F
100
AcDbEntity
  8
BORDER
100
AcDbLine
 10
15.6187056063
 20
2.4198662652
 30
0.0
 11
15.6937435129
 21
2.4045788586
 31
0.0
  0
LINE
  5
176
330
1F
100
AcDbEntity
  8
BORDER
100
AcDbLine
 10
15.3391666276
 20
2.2554625861
 30
0.0
 11
15.2841392776
 21
2.2554625861
 31
0.0
  0
LINE
  5
177
330
1F
100
AcDbEntity
  8
BORDER
100
AcDbLine
 10
15.2841392776
 20
2.2554625861
 30
0.0
 11
15.2667837629
 21
2.3118001111
 31
0.0
  0
LINE
  5
178
330
1F
100
AcDbEntity
  8
BORDER
100
AcDbLine
 10
15.2546752642
 20
2.3511053611
 30
0.0
 11
15.2166652651
 21
2.4744891556
 31
0.0
  0
LINE
  5
179
330
1F
100
AcDbEntity
  8
BORDER
100
AcDbLine
 10
15.1786552661
 20
2.3511053611
 30
0.0
 11
15.2546752642
 21
2.3511053611
 31
0.0
  0
LINE
  5
17A
330
1F
100
AcDbEntity
  8
BORDER
100
AcDbLine
 10
15.2166652651
 20
2.4744891556
 30
0.0
 11
15.1786552661
 21
2.3511053611
 31
0.0
  0
LINE
  5
17B
330
1F
100
AcDbEntity
  8
BORDER
100
AcDbLine
 10
15.2667837629
 20
2.3118001111
 30
0.0
 11
15.1665467674
 21
2.3118001111
 31
0.0
  0
LINE
  5
17C
330
1F
100
AcDbEntity
  8
BORDER
100
AcDbLine
 10
15.1665467674
 20
2.3118001111
 30
0.0
 11
15.1491912526
 21
2.2554625861
 31
0.0
  0
LINE
  5
17D
330
1F
100
AcDbEntity
  8
BORDER
100
AcDbLine
 10
15.1491912526
 20
2.2554625861
 30
0.0
 11
15.0941639026
 21
2.2554625861
 31
0.0
  0
LINE
  5
17E
330
1F
100
AcDbEntity
  8
BORDER
100
AcDbLine
 10
15.3849945768
 20
2.4781923361
 30
0.0
 11
15.3849945768
 21
2.4126835861
 31
0.0
  0
LINE
  5
17F
330
1F
100
AcDbEntity
  8
BORDER
100
AcDbLine
 10
15.4546395888
 20
2.3720681611
 30
0.0
 11
15.3849945768
 21
2.3720681611
 31
0.0
  0
LINE
  5
180
330
1F
100
AcDbEntity
  8
BORDER
100
AcDbLine
 10
15.3849945768
 20
2.4126835861
 30
0.0
 11
15.4512539522
 21
2.4126835861
 31
0.0
  0
LINE
  5
181
330
1F
100
AcDbEntity
  8
BORDER
100
AcDbLine
 10
15.4512539494
 20
2.4781923361
 30
0.0
 11
15.3849945768
 21
2.4781923361
 31
0.0
  0
LINE
  5
182
330
1F
100
AcDbEntity
  8
BORDER
100
AcDbLine
 10
15.3849945768
 20
2.2960780111
 30
0.0
 11
15.4478829768
 21
2.2960780111
 31
0.0
  0
LINE
  5
183
330
1F
100
AcDbEntity
  8
BORDER
100
AcDbLine
 10
15.3325875768
 20
2.2554625861
 30
0.0
 11
15.4596745518
 21
2.2554625861
 31
0.0
  0
LINE
  5
184
330
1F
100
AcDbEntity
  8
BORDER
100
AcDbLine
 10
15.3849945768
 20
2.3720681611
 30
0.0
 11
15.3849945768
 21
2.2960780111
 31
0.0
  0
LINE
  5
185
330
1F
100
AcDbEntity
  8
BORDER
100
AcDbLine
 10
15.7935345497
 20
2.4010344009
 30
0.0
 11
15.9167958137
 21
2.4010344009
 31
0.0
  0
LINE
  5
186
330
1F
100
AcDbEntity
  8
BORDER
100
AcDbLine
 10
15.9167958137
 20
2.4010344009
 30
0.0
 11
15.9167958137
 21
2.3751495355
 31
0.0
  0
LINE
  5
187
330
1F
100
AcDbEntity
  8
BORDER
100
AcDbLine
 10
15.9167958137
 20
2.3751495355
 30
0.0
 11
15.7935345497
 21
2.3751495355
 31
0.0
  0
LINE
  5
188
330
1F
100
AcDbEntity
  8
BORDER
100
AcDbLine
 10
15.7935345497
 20
2.3751495355
 30
0.0
 11
15.7935345497
 21
2.4010344009
 31
0.0
  0
LINE
  5
189
330
1F
100
AcDbEntity
  8
BORDER
100
AcDbLine
 10
15.8588333106
 20
2.4356715988
 30
0.0
 11
15.8601887223
 21
2.4146767011
 31
0.0
  0
LINE
  5
18A
330
1F
100
AcDbEntity
  8
BORDER
100
AcDbLine
 10
15.8601887223
 20
2.4146767011
 30
0.0
 11
15.900851073
 21
2.4308834804
 31
0.0
  0
LINE
  5
18B
330
1F
100
AcDbEntity
  8
BORDER
100
AcDbLine
 10
15.900851073
 20
2.4308834804
 30
0.0
 11
15.89161642
 21
2.4460980451
 31
0.0
  0
LINE
  5
18C
330
1F
100
AcDbEntity
  8
BORDER
100
AcDbLine
 10
15.89161642
 20
2.4460980451
 30
0.0
 11
15.8588333106
 21
2.4356715988
 31
0.0
  0
LINE
  5
18D
330
1F
100
AcDbEntity
  8
BORDER
100
AcDbLine
 10
15.7935345575
 20
2.2488067411
 30
0.0
 11
15.7935345575
 21
2.2746916065
 31
0.0
  0
LINE
  5
18E
330
1F
100
AcDbEntity
  8
BORDER
100
AcDbLine
 10
15.7935345575
 20
2.2746916065
 30
0.0
 11
15.9167958215
 21
2.2746916065
 31
0.0
  0
LINE
  5
18F
330
1F
100
AcDbEntity
  8
BORDER
100
AcDbLine
 10
15.9167958215
 20
2.2746916065
 30
0.0
 11
15.9167958215
 21
2.2488067411
 31
0.0
  0
LINE
  5
190
330
1F
100
AcDbEntity
  8
BORDER
100
AcDbLine
 10
15.9167958215
 20
2.2488067411
 30
0.0
 11
15.7935345575
 21
2.2488067411
 31
0.0
  0
LINE
  5
191
330
1F
100
AcDbEntity
  8
BORDER
100
AcDbLine
 10
15.9167958137
 20
2.2962623265
 30
0.0
 11
15.7935345497
 21
2.2962623265
 31
0.0
  0
LINE
  5
192
330
1F
100
AcDbEntity
  8
BORDER
100
AcDbLine
 10
15.7935345497
 20
2.2962623265
 30
0.0
 11
15.7935345497
 21
2.322147192
 31
0.0
  0
LINE
  5
193
330
1F
100
AcDbEntity
  8
BORDER
100
AcDbLine
 10
15.7935345497
 20
2.322147192
 30
0.0
 11
15.9167958137
 21
2.322147192
 31
0.0
  0
LINE
  5
194
330
1F
100
AcDbEntity
  8
BORDER
100
AcDbLine
 10
15.9167958137
 20
2.322147192
 30
0.0
 11
15.9167958137
 21
2.2962623265
 31
0.0
  0
LINE
  5
195
330
1F
100
AcDbEntity
  8
BORDER
100
AcDbLine
 10
15.7935345497
 20
2.3227634983
 30
0.0
 11
15.9167931281
 21
2.4003707513
 31
0.0
  0
LINE
  5
196
330
1F
100
AcDbEntity
  8
BORDER
100
AcDbLine
 10
15.9167931281
 20
2.4003707513
 30
0.0
 11
15.9167958137
 21
2.3745332292
 31
0.0
  0
LINE
  5
197
330
1F
100
AcDbEntity
  8
BORDER
100
AcDbLine
 10
15.9167958137
 20
2.3745332292
 30
0.0
 11
15.7935437351
 21
2.2980624983
 31
0.0
  0
LINE
  5
198
330
1F
100
AcDbEntity
  8
BORDER
100
AcDbLine
 10
15.7935437351
 20
2.2980624983
 30
0.0
 11
15.7935345497
 21
2.3227634983
 31
0.0
  0
LINE
  5
199
330
1F
100
AcDbEntity
  8
BORDER
100
AcDbLine
 10
15.8100384898
 20
2.4564407449
 30
0.0
 11
15.7951289612
 21
2.450345452
 31
0.0
  0
LINE
  5
19A
330
1F
100
AcDbEntity
  8
BORDER
100
AcDbLine
 10
15.7951289612
 20
2.450345452
 30
0.0
 11
15.8208817833
 21
2.4225780067
 31
0.0
  0
LINE
  5
19B
330
1F
100
AcDbEntity
  8
BORDER
100
AcDbLine
 10
15.8208817833
 20
2.4225780067
 30
0.0
 11
15.8335322924
 21
2.4377033631
 31
0.0
  0
LINE
  5
19C
330
1F
100
AcDbEntity
  8
BORDER
100
AcDbLine
 10
15.8335322924
 20
2.4377033631
 30
0.0
 11
15.8100384898
 21
2.4564407449
 31
0.0
  0
LINE
  5
19D
330
1F
100
AcDbEntity
  8
BORDER
100
AcDbLine
 10
15.8335322924
 20
2.4377033631
 30
0.0
 11
15.8208817833
 21
2.4225780067
 31
0.0
  0
LINE
  5
19E
330
1F
100
AcDbEntity
  8
BORDER
100
AcDbLine
 10
15.8208817833
 20
2.4225780067
 30
0.0
 11
15.8601887223
 21
2.4146767011
 31
0.0
  0
LINE
  5
19F
330
1F
100
AcDbEntity
  8
BORDER
100
AcDbLine
 10
15.8601887223
 20
2.4146767011
 30
0.0
 11
15.8588333106
 21
2.4356715988
 31
0.0
  0
LINE
  5
1A0
330
1F
100
AcDbEntity
  8
BORDER
100
AcDbLine
 10
15.8588333106
 20
2.4356715988
 30
0.0
 11
15.8335322924
 21
2.4377033631
 31
0.0
  0
LINE
  5
1A1
330
1F
100
AcDbEntity
  8
BORDER
100
AcDbLine
 10
15.89161642
 20
2.4460980451
 30
0.0
 11
15.900851073
 21
2.4308834804
 31
0.0
  0
LINE
  5
1A2
330
1F
100
AcDbEntity
  8
BORDER
100
AcDbLine
 10
15.900851073
 20
2.4308834804
 30
0.0
 11
15.9183220382
 21
2.4623102862
 31
0.0
  0
LINE
  5
1A3
330
1F
100
AcDbEntity
  8
BORDER
100
AcDbLine
 10
15.9183220382
 20
2.4623102862
 30
0.0
 11
15.9023485843
 21
2.4702916972
 31
0.0
  0
LINE
  5
1A4
330
1F
100
AcDbEntity
  8
BORDER
100
AcDbLine
 10
15.9023485843
 20
2.4702916972
 30
0.0
 11
15.89161642
 21
2.4460980451
 31
0.0
  0
LINE
  5
1A5
330
1F
100
AcDbEntity
  8
BORDER
370
    35
100
AcDbLine
 10
14.8576461702
 20
2.5122568861
 30
0.0
 11
14.7130090985
 21
2.5122568861
 31
0.0
  0
LINE
  5
1A6
330
1F
100
AcDbEntity
  8
BORDER
100
AcDbLine
 10
14.9814888526
 20
2.5174975861
 30
0.0
 11
14.9264615026
 21
2.5174975861
 31
0.0
  0
LINE
  5
1A7
330
1F
100
AcDbEntity
  8
BORDER
100
AcDbLine
 10
15.4550108708
 20
2.5174975861
 30
0.0
 11
15.3325875768
 21
2.5174975861
 31
0.0
  0
LINE
  5
1A8
330
1F
100
AcDbEntity
  8
BORDER
100
AcDbLine
 10
15.8958593687
 20
2.4917417392
 30
0.0
 11
15.9110840669
 21
2.501967922
 31
0.0
  0
LINE
  5
1A9
330
1F
100
AcDbEntity
  8
BORDER
100
AcDbLine
 10
15.9110840669
 20
2.501967922
 30
0.0
 11
15.8830019148
 21
2.5234950352
 31
0.0
  0
LINE
  5
1AA
330
1F
100
AcDbEntity
  8
BORDER
100
AcDbLine
 10
15.8830019148
 20
2.5234950352
 30
0.0
 11
15.880380676
 21
2.5008592432
 31
0.0
  0
LINE
  5
1AB
330
1F
100
AcDbEntity
  8
BORDER
100
AcDbLine
 10
15.880380676
 20
2.5008592432
 30
0.0
 11
15.8958593687
 21
2.4917417392
 31
0.0
  0
LINE
  5
1AC
330
1F
100
AcDbEntity
  8
BORDER
100
AcDbLine
 10
15.880380676
 20
2.5008592432
 30
0.0
 11
15.8830019148
 21
2.5234950352
 31
0.0
  0
LINE
  5
1AD
330
1F
100
AcDbEntity
  8
BORDER
100
AcDbLine
 10
15.8830019148
 20
2.5234950352
 30
0.0
 11
15.8769940412
 21
2.5249623308
 31
0.0
  0
LINE
  5
1AE
330
1F
100
AcDbEntity
  8
BORDER
100
AcDbLine
 10
15.8769940412
 20
2.5249623308
 30
0.0
 11
15.8769940412
 21
2.500030567
 31
0.0
  0
LINE
  5
1AF
330
1F
100
AcDbEntity
  8
BORDER
100
AcDbLine
 10
15.8769940412
 20
2.500030567
 30
0.0
 11
15.880380676
 21
2.5008592432
 31
0.0
  0
LINE
  5
1B0
330
1F
100
AcDbEntity
  8
BORDER
100
AcDbLine
 10
15.8229149009
 20
2.4991077951
 30
0.0
 11
15.8104902937
 21
2.5126528903
 31
0.0
  0
LINE
  5
1B1
330
1F
100
AcDbEntity
  8
BORDER
100
AcDbLine
 10
15.8104902937
 20
2.5126528903
 30
0.0
 11
15.8265147577
 21
2.5217776239
 31
0.0
  0
LINE
  5
1B2
330
1F
100
AcDbEntity
  8
BORDER
100
AcDbLine
 10
15.8265147577
 20
2.5217776239
 30
0.0
 11
15.8281179328
 21
2.5004404577
 31
0.0
  0
LINE
  5
1B3
330
1F
100
AcDbEntity
  8
BORDER
100
AcDbLine
 10
15.8281179328
 20
2.5004404577
 30
0.0
 11
15.8229149009
 21
2.4991077951
 31
0.0
  0
LINE
  5
1B4
330
1F
100
AcDbEntity
  8
BORDER
100
AcDbLine
 10
15.8281179328
 20
2.5004404577
 30
0.0
 11
15.8265147577
 21
2.5217776239
 31
0.0
  0
LINE
  5
1B5
330
1F
100
AcDbEntity
  8
BORDER
100
AcDbLine
 10
15.8265147577
 20
2.5217776239
 30
0.0
 11
15.8315014356
 21
2.5230088686
 31
0.0
  0
LINE
  5
1B6
330
1F
100
AcDbEntity
  8
BORDER
100
AcDbLine
 10
15.8315014356
 20
2.5230088686
 30
0.0
 11
15.8315014356
 21
2.4988947527
 31
0.0
  0
LINE
  5
1B7
330
1F
100
AcDbEntity
  8
BORDER
100
AcDbLine
 10
15.8315014356
 20
2.4988947527
 30
0.0
 11
15.8281179328
 21
2.5004404577
 31
0.0
  0
LINE
  5
1B8
330
1F
100
AcDbEntity
  8
SLD-0
 62
     7
100
AcDbLine
 10
12.443374187
 20
7.3414593103
 30
0.0
 11
11.3162485353
 21
7.3414593103
 31
0.0
  0
LINE
  5
1B9
330
1F
100
AcDbEntity
  8
SLD-0
 62
     7
100
AcDbLine
 10
12.9037832229
 20
5.7914593103
 30
0.0
 11
12.0914589296
 21
5.7914593103
 31
0.0
  0
LINE
  5
1BA
330
1F
100
AcDbEntity
  8
SLD-0
 62
     7
100
AcDbLine
 10
10.397344102
 20
8.4987053659
 30
0.0
 11
9.897344102
 21
8.4987053659
 31
0.0
  0
LINE
  5
1BB
330
1F
100
AcDbEntity
  8
SLD-0
 62
     7
100
AcDbLine
 10
12.2164589296
 20
5.7914593103
 30
0.0
 11
12.2164589296
 21
6.5125271772
 31
0.0
  0
LINE
  5
1BC
330
1F
100
AcDbEntity
  8
SLD-0
100
AcDbLine
 10
12.2164589296
 20
5.7914593103
 30
0.0
 11
12.2424589296
 21
5.9474593103
 31
0.0
  0
LINE
  5
1BD
330
1F
100
AcDbEntity
  8
SLD-0
100
AcDbLine
 10
12.2424589296
 20
5.9474593103
 30
0.0
 11
12.1904589296
 21
5.9474593103
 31
0.0
  0
LINE
  5
1BE
330
1F
100
AcDbEntity
  8
SLD-0
100
AcDbLine
 10
12.1904589296
 20
5.9474593103
 30
0.0
 11
12.2164589296
 21
5.7914593103
 31
0.0
  0
LINE
  5
1BF
330
1F
100
AcDbEntity
  8
SLD-0
 62
     7
100
AcDbLine
 10
12.2164589296
 20
7.3414593103
 30
0.0
 11
12.2164589296
 21
6.7312402633
 31
0.0
  0
LINE
  5
1C0
330
1F
100
AcDbEntity
  8
SLD-0
100
AcDbLine
 10
12.2164589296
 20
7.3414593103
 30
0.0
 11
12.1904589296
 21
7.1854593103
 31
0.0
  0
LINE
  5
1C1
330
1F
100
AcDbEntity
  8
SLD-0
100
AcDbLine
 10
12.1904589296
 20
7.1854593103
 30
0.0
 11
12.2424589296
 21
7.1854593103
 31
0.0
  0
LINE
  5
1C2
330
1F
100
AcDbEntity
  8
SLD-0
100
AcDbLine
 10
12.2424589296
 20
7.1854593103
 30
0.0
 11
12.2164589296
 21
7.3414593103
 31
0.0
  0
LINE
  5
1C3
330
1F
100
AcDbEntity
  8
SLD-0
 62
     7
100
AcDbLine
 10
11.6755687212
 20
4.7410226197
 30
0.0
 11
11.2172521274
 21
4.930717939
 31
0.0
  0
LINE
  5
1C4
330
1F
100
AcDbEntity
  8
SLD-0
  6
Continuous
 62
     7
100
AcDbLine
 10
10.422344102
 20
5.27173695
 30
0.0
 11
11.572344102
 21
5.27173695
 31
0.0
  0
LINE
  5
1C5
330
1F
100
AcDbEntity
  8
SLD-0
  6
Continuous
 62
     7
100
AcDbLine
 10
11.572344102
 20
4.62173695
 30
0.0
 11
10.422344102
 21
4.62173695
 31
0.0
  0
LINE
  5
1C6
330
1F
100
AcDbEntity
  8
SLD-0
  6
Continuous
 62
     7
100
AcDbLine
 10
10.397344102
 20
4.64673695
 30
0.0
 11
10.397344102
 21
5.24673695
 31
0.0
  0
LINE
  5
1C7
330
1F
100
AcDbEntity
  8
SLD-0
  6
Continuous
100
AcDbLine
 10
10.907344102
 20
5.02173695
 30
0.0
 11
11.087344102
 21
5.02173695
 31
0.0
  0
LINE
  5
1C8
330
1F
100
AcDbEntity
  8
SLD-0
100
AcDbLine
 10
11.2271953807
 20
4.9547415048
 30
0.0
 11
11.2073088741
 21
4.9066943732
 31
0.0
  0
LINE
  5
1C9
330
1F
100
AcDbEntity
  8
SLD-0
100
AcDbLine
 10
11.2073088741
 20
4.9066943732
 30
0.0
 11
11.0731107326
 21
4.9903774588
 31
0.0
  0
LINE
  5
1CA
330
1F
100
AcDbEntity
  8
SLD-0
100
AcDbLine
 10
11.0731107326
 20
4.9903774588
 30
0.0
 11
11.2271953807
 21
4.9547415048
 31
0.0
  0
LINE
  5
1CB
330
1F
100
AcDbEntity
  8
SLD-0
  6
Continuous
100
AcDbLine
 10
10.997344102
 20
4.93173695
 30
0.0
 11
10.997344102
 21
5.11173695
 31
0.0
  0
LINE
  5
1CC
330
1F
100
AcDbEntity
  8
SLD-0
 62
     7
100
AcDbLine
 10
12.046928832
 20
4.7410226197
 30
0.0
 11
11.6755687212
 21
4.7410226197
 31
0.0
  0
LINE
  5
1CD
330
1F
100
AcDbEntity
  8
SLD-0
  6
Continuous
 62
     7
100
AcDbLine
 10
11.597344102
 20
5.24673695
 30
0.0
 11
11.597344102
 21
4.64673695
 31
0.0
  0
LINE
  5
1CE
330
1F
100
AcDbEntity
  8
SLD-0
 62
     7
100
AcDbLine
 10
12.6388742025
 20
8.2702337861
 30
0.0
 11
12.2847385013
 21
8.2702337861
 31
0.0
  0
LINE
  5
1CF
330
1F
100
AcDbEntity
  8
SLD-0
 62
     7
100
AcDbLine
 10
10.997344102
 20
7.6374069866
 30
0.0
 11
10.997344102
 21
8.6237053659
 31
0.0
  0
LINE
  5
1D0
330
1F
100
AcDbEntity
  8
SLD-0
 62
     7
100
AcDbLine
 10
12.2847385013
 20
8.2702337861
 30
0.0
 11
11.3292502152
 21
7.5785199534
 31
0.0
  0
LINE
  5
1D1
330
1F
100
AcDbEntity
  8
SLD-0
  6
Continuous
 62
     7
100
AcDbLine
 10
11.597344102
 20
7.7664593103
 30
0.0
 11
11.597344102
 21
5.8164593103
 31
0.0
  0
LINE
  5
1D2
330
1F
100
AcDbEntity
  8
SLD-0
  6
Continuous
 62
     7
100
AcDbLine
 10
10.397344102
 20
5.8164593103
 30
0.0
 11
10.397344102
 21
7.7664593103
 31
0.0
  0
LINE
  5
1D3
330
1F
100
AcDbEntity
  8
SLD-0
100
AcDbLine
 10
11.3140037289
 20
7.5995804533
 30
0.0
 11
11.3444967016
 21
7.5574594536
 31
0.0
  0
LINE
  5
1D4
330
1F
100
AcDbEntity
  8
SLD-0
100
AcDbLine
 10
11.3444967016
 20
7.5574594536
 30
0.0
 11
11.202887216
 21
7.4870410355
 31
0.0
  0
LINE
  5
1D5
330
1F
100
AcDbEntity
  8
SLD-0
100
AcDbLine
 10
11.202887216
 20
7.4870410355
 30
0.0
 11
11.3140037289
 21
7.5995804533
 31
0.0
  0
LINE
  5
1D6
330
1F
100
AcDbEntity
  8
SLD-0
  6
Continuous
 62
     7
100
AcDbLine
 10
11.572344102
 20
5.7914593103
 30
0.0
 11
10.422344102
 21
5.7914593103
 31
0.0
  0
LINE
  5
1D7
330
1F
100
AcDbEntity
  8
SLD-0
  6
Continuous
 62
     7
100
AcDbLine
 10
10.8557349034
 20
7.3473648221
 30
0.0
 11
10.9914385902
 21
7.3473648221
 31
0.0
  0
LINE
  5
1D8
330
1F
100
AcDbEntity
  8
SLD-0
  6
Continuous
 62
     7
100
AcDbLine
 10
10.8557349034
 20
7.3355537984
 30
0.0
 11
10.9914385902
 21
7.3355537984
 31
0.0
  0
LINE
  5
1D9
330
1F
100
AcDbEntity
  8
SLD-0
  6
Continuous
 62
     7
100
AcDbLine
 10
10.9914385902
 20
7.4830685088
 30
0.0
 11
10.9914385902
 21
7.3473648221
 31
0.0
  0
LINE
  5
1DA
330
1F
100
AcDbEntity
  8
SLD-0
  6
Continuous
 62
     7
100
AcDbLine
 10
11.0032496138
 20
7.4830685088
 30
0.0
 11
11.0032496138
 21
7.3473648221
 31
0.0
  0
LINE
  5
1DB
330
1F
100
AcDbEntity
  8
SLD-0
  6
Continuous
 62
     7
100
AcDbLine
 10
11.0032496138
 20
7.3355537984
 30
0.0
 11
11.0032496138
 21
7.1998501117
 31
0.0
  0
LINE
  5
1DC
330
1F
100
AcDbEntity
  8
SLD-0
  6
Continuous
 62
     7
100
AcDbLine
 10
10.9914385902
 20
7.3355537984
 30
0.0
 11
10.9914385902
 21
7.1998501117
 31
0.0
  0
LINE
  5
1DD
330
1F
100
AcDbEntity
  8
SLD-0
  6
Continuous
 62
     7
100
AcDbLine
 10
11.0032496138
 20
7.3355537984
 30
0.0
 11
11.1389533005
 21
7.3355537984
 31
0.0
  0
LINE
  5
1DE
330
1F
100
AcDbEntity
  8
SLD-0
  6
Continuous
 62
     7
100
AcDbLine
 10
11.0032496138
 20
7.3473648221
 30
0.0
 11
11.1389533005
 21
7.3473648221
 31
0.0
  0
LINE
  5
1DF
330
1F
100
AcDbEntity
  8
SLD-0
 62
     7
100
AcDbLine
 10
10.997344102
 20
8.4987053659
 30
0.0
 11
11.497344102
 21
8.4987053659
 31
0.0
  0
LINE
  5
1E0
330
1F
100
AcDbEntity
  8
SLD-0
  6
Continuous
 62
     7
100
AcDbLine
 10
10.422344102
 20
7.7914593103
 30
0.0
 11
11.572344102
 21
7.7914593103
 31
0.0
  0
LINE
  5
1E1
330
1F
100
AcDbEntity
  8
SLD-0
 62
     7
100
AcDbLine
 10
10.397344102
 20
7.8164593103
 30
0.0
 11
10.397344102
 21
8.6237053659
 31
0.0
  0
LINE
  5
1E2
330
1F
100
AcDbEntity
  8
SLD-0
100
AcDbLine
 10
10.397344102
 20
8.4987053659
 30
0.0
 11
10.241344102
 21
8.5247053659
 31
0.0
  0
LINE
  5
1E3
330
1F
100
AcDbEntity
  8
SLD-0
100
AcDbLine
 10
10.241344102
 20
8.5247053659
 30
0.0
 11
10.241344102
 21
8.4727053659
 31
0.0
  0
LINE
  5
1E4
330
1F
100
AcDbEntity
  8
SLD-0
100
AcDbLine
 10
10.241344102
 20
8.4727053659
 30
0.0
 11
10.397344102
 21
8.4987053659
 31
0.0
  0
LINE
  5
1E5
330
1F
100
AcDbEntity
  8
SLD-0
100
AcDbLine
 10
10.997344102
 20
8.4987053659
 30
0.0
 11
11.153344102
 21
8.4727053659
 31
0.0
  0
LINE
  5
1E6
330
1F
100
AcDbEntity
  8
SLD-0
100
AcDbLine
 10
11.153344102
 20
8.4727053659
 30
0.0
 11
11.153344102
 21
8.5247053659
 31
0.0
  0
LINE
  5
1E7
330
1F
100
AcDbEntity
  8
SLD-0
100
AcDbLine
 10
11.153344102
 20
8.5247053659
 30
0.0
 11
10.997344102
 21
8.4987053659
 31
0.0
  0
LINE
  5
1E8
330
1F
100
AcDbEntity
  8
SOCKET
 62
     7
370
    18
100
AcDbLine
 10
5.9147041154
 20
5.9356831165
 30
0.0
 11
5.904899144
 21
5.9223761953
 31
0.0
  0
LINE
  5
1E9
330
1F
100
AcDbEntity
  8
SOCKET
 62
     7
370
    18
100
AcDbLine
 10
5.8911829181
 20
5.9576992195
 30
0.0
 11
5.8785524775
 21
5.9470369689
 31
0.0
  0
LINE
  5
1EA
330
1F
100
AcDbEntity
  8
SOCKET
 62
     7
370
    18
100
AcDbLine
 10
5.8927835303
 20
6.1370815124
 30
0.0
 11
5.8803453623
 21
6.1479674479
 31
0.0
  0
LINE
  5
1EB
330
1F
100
AcDbEntity
  8
SOCKET
 62
     7
370
    18
100
AcDbLine
 10
5.9160305549
 20
6.1582007211
 30
0.0
 11
5.9063849211
 21
6.1716235884
 31
0.0
  0
LINE
  5
1EC
330
1F
100
AcDbEntity
  8
SOCKET
 62
     7
370
    18
100
AcDbLine
 10
5.9581177913
 20
6.1786476976
 30
0.0
 11
5.9535278607
 21
6.1945267452
 31
0.0
  0
LINE
  5
1ED
330
1F
100
AcDbEntity
  8
SOCKET
 62
     7
370
    18
100
AcDbLine
 10
6.0423316746
 20
5.9167774454
 30
0.0
 11
6.0478578842
 21
5.9011994922
 31
0.0
  0
LINE
  5
1EE
330
1F
100
AcDbEntity
  8
SOCKET
 62
     7
370
    18
100
AcDbLine
 10
6.0697059856
 20
5.9300575318
 30
0.0
 11
6.0785205173
 21
5.9160748407
 31
0.0
  0
LINE
  5
1EF
330
1F
100
AcDbEntity
  8
SOCKET
 62
     7
370
    18
100
AcDbLine
 10
6.0822471438
 20
5.9389809694
 30
0.0
 11
6.0925681742
 21
5.9260702006
 31
0.0
  0
LINE
  5
1F0
330
1F
100
AcDbEntity
  8
SOCKET
 62
     7
370
    18
100
AcDbLine
 10
6.1034798059
 20
5.9601333758
 30
0.0
 11
6.1163513967
 21
5.9497635267
 31
0.0
  0
LINE
  5
1F1
330
1F
100
AcDbEntity
  8
SOCKET
 62
     7
370
    18
100
AcDbLine
 10
6.0346290986
 20
6.1786211655
 30
0.0
 11
6.0392300411
 21
6.194497026
 31
0.0
  0
LINE
  5
1F2
330
1F
100
AcDbEntity
  8
SLD-0
 62
     7
100
AcDbLine
 10
13.0147680705
 20
5.7914593103
 30
0.0
 11
11.6783488631
 21
5.7914593103
 31
0.0
  0
LINE
  5
1F3
330
1F
100
AcDbEntity
  8
SLD-0
 62
     7
100
AcDbLine
 10
13.0147680705
 20
7.7914593103
 30
0.0
 11
11.6783488631
 21
7.7914593103
 31
0.0
  0
LINE
  5
1F4
330
1F
100
AcDbEntity
  8
SLD-0
 62
     7
100
AcDbLine
 10
12.7775070014
 20
5.9474593103
 30
0.0
 11
12.7775070014
 21
6.6793422396
 31
0.0
  0
LINE
  5
1F5
330
1F
100
AcDbEntity
  8
SLD-0
 62
     7
100
AcDbLine
 10
12.7775070014
 20
7.6354593103
 30
0.0
 11
12.7775070014
 21
6.886035153
 31
0.0
  0
LINE
  5
1F6
330
1F
100
AcDbEntity
  8
SLD-0
100
AcDbLine
 10
12.7515070014
 20
5.9474593103
 30
0.0
 11
12.8035070014
 21
5.9474593103
 31
0.0
  0
LINE
  5
1F7
330
1F
100
AcDbEntity
  8
SLD-0
100
AcDbLine
 10
12.8035070014
 20
5.9474593103
 30
0.0
 11
12.7775070014
 21
5.7914593103
 31
0.0
  0
LINE
  5
1F8
330
1F
100
AcDbEntity
  8
SLD-0
100
AcDbLine
 10
12.7775070014
 20
5.7914593103
 30
0.0
 11
12.7515070014
 21
5.9474593103
 31
0.0
  0
LINE
  5
1F9
330
1F
100
AcDbEntity
  8
SLD-0
100
AcDbLine
 10
12.7515070014
 20
7.6354593103
 30
0.0
 11
12.8035070014
 21
7.6354593103
 31
0.0
  0
LINE
  5
1FA
330
1F
100
AcDbEntity
  8
SLD-0
100
AcDbLine
 10
12.8035070014
 20
7.6354593103
 30
0.0
 11
12.7775070014
 21
7.7914593103
 31
0.0
  0
LINE
  5
1FB
330
1F
100
AcDbEntity
  8
SLD-0
100
AcDbLine
 10
12.7775070014
 20
7.7914593103
 30
0.0
 11
12.7515070014
 21
7.6354593103
 31
0.0
  0
LINE
  5
1FC
330
1F
100
AcDbEntity
  8
D1
  6
Continuous
100
AcDbLine
 10
10.397344102
 20
5.9214593103
 30
0.0
 11
9.052765839
 21
5.9214593103
 31
0.0
  0
LINE
  5
1FD
330
1F
100
AcDbEntity
  8
D1
  6
Continuous
100
AcDbLine
 10
10.397344102
 20
6.1714593103
 30
0.0
 11
9.3101453479
 21
6.1714593103
 31
0.0
  0
LINE
  5
1FE
330
1F
100
AcDbEntity
  8
D1
100
AcDbLine
 10
9.1940266734
 20
6.4871410453
 30
0.0
 11
9.2934706792
 21
6.33413487
 31
0.0
  0
LINE
  5
1FF
330
1F
100
AcDbEntity
  8
D1
100
AcDbLine
 10
9.2934706792
 20
6.33413487
 30
0.0
 11
9.1497784006
 21
6.4466183313
 31
0.0
  0
LINE
  5
200
330
1F
100
AcDbEntity
  8
D1
100
AcDbLine
 10
9.1497784006
 20
6.4466183313
 30
0.0
 11
9.1940266734
 21
6.4871410453
 31
0.0
  0
LINE
  5
201
330
1F
100
AcDbEntity
  8
D1
  6
Continuous
100
AcDbLine
 10
9.171902537
 20
6.4668796883
 30
0.0
 11
8.6972630726
 21
6.9851563382
 31
0.0
  0
LINE
  5
202
330
1F
100
AcDbEntity
  8
D1
  6
Continuous
100
AcDbLine
 10
8.6972630726
 20
6.9851563382
 30
0.0
 11
8.101055466
 21
6.9851563382
 31
0.0
  0
LINE
  5
203
330
1F
100
AcDbEntity
  8
D1
  6
Continuous
100
AcDbLine
 10
7.5710008748
 20
6.2689593103
 30
0.0
 11
7.3510008748
 21
6.2689593103
 31
0.0
  0
LINE
  5
204
330
1F
100
AcDbEntity
  8
D1
  6
Continuous
100
AcDbLine
 10
6.5810008748
 20
6.2539593103
 30
0.0
 11
6.5810008748
 21
5.8389593103
 31
0.0
  0
LINE
  5
205
330
1F
100
AcDbEntity
  8
D1
  6
Continuous
100
AcDbLine
 10
6.7760008748
 20
5.8239593103
 30
0.0
 11
7.1510008748
 21
5.8239593103
 31
0.0
  0
LINE
  5
206
330
1F
100
AcDbEntity
  8
D1
  6
Continuous
100
AcDbLine
 10
7.9410008748
 20
5.9089593103
 30
0.0
 11
7.9410008748
 21
6.1839593103
 31
0.0
  0
LINE
  5
207
330
1F
100
AcDbEntity
  8
D1
  6
Continuous
100
AcDbLine
 10
7.1510008748
 20
6.2689593103
 30
0.0
 11
7.1510008748
 21
5.8239593103
 31
0.0
  0
LINE
  5
208
330
1F
100
AcDbEntity
  8
D1
  6
Continuous
100
AcDbLine
 10
7.2510008748
 20
6.2339593103
 30
0.0
 11
7.2510008748
 21
5.8589593103
 31
0.0
  0
LINE
  5
209
330
1F
100
AcDbEntity
  8
D1
  6
Continuous
100
AcDbLine
 10
7.3510008748
 20
6.2689593103
 30
0.0
 11
7.3510008748
 21
5.8239593103
 31
0.0
  0
LINE
  5
20A
330
1F
100
AcDbEntity
  8
D1
  6
Continuous
100
AcDbLine
 10
7.5710008748
 20
6.2689593103
 30
0.0
 11
7.5710008748
 21
5.8239593103
 31
0.0
  0
LINE
  5
20B
330
1F
100
AcDbEntity
  8
D1
  6
Continuous
100
AcDbLine
 10
7.2510008748
 20
6.2339593103
 30
0.0
 11
7.1510008748
 21
6.2339593103
 31
0.0
  0
LINE
  5
20C
330
1F
100
AcDbEntity
  8
D1
  6
Continuous
100
AcDbLine
 10
7.2510008748
 20
5.8589593103
 30
0.0
 11
7.1510008748
 21
5.8589593103
 31
0.0
  0
LINE
  5
20D
330
1F
100
AcDbEntity
  8
D1
  6
Continuous
100
AcDbLine
 10
7.5710008748
 20
6.2339593103
 30
0.0
 11
7.9410008748
 21
6.1839593103
 31
0.0
  0
LINE
  5
20E
330
1F
100
AcDbEntity
  8
D1
  6
Continuous
100
AcDbLine
 10
7.5710008748
 20
5.8589593103
 30
0.0
 11
7.9410008748
 21
5.9089593103
 31
0.0
  0
LINE
  5
20F
330
1F
100
AcDbEntity
  8
D1
  6
Continuous
100
AcDbLine
 10
7.3510008748
 20
6.2689593103
 30
0.0
 11
7.2510008748
 21
6.2339593103
 31
0.0
  0
LINE
  5
210
330
1F
100
AcDbEntity
  8
D1
  6
Continuous
100
AcDbLine
 10
7.3510008748
 20
5.8239593103
 30
0.0
 11
7.2510008748
 21
5.8589593103
 31
0.0
  0
LINE
  5
211
330
1F
100
AcDbEntity
  8
D1
  6
Continuous
100
AcDbLine
 10
7.1510008748
 20
6.2689593103
 30
0.0
 11
6.7760008748
 21
6.2689593103
 31
0.0
  0
LINE
  5
212
330
1F
100
AcDbEntity
  8
D1
  6
Continuous
100
AcDbLine
 10
7.3510008748
 20
5.8239593103
 30
0.0
 11
7.5710008748
 21
5.8239593103
 31
0.0
  0
LINE
  5
213
330
1F
100
AcDbEntity
  8
D1
  6
Continuous
100
AcDbLine
 10
6.7760008748
 20
6.2689593103
 30
0.0
 11
6.7760008748
 21
5.8239593103
 31
0.0
  0
LINE
  5
214
330
1F
100
AcDbEntity
  8
D1
  6
Continuous
100
AcDbLine
 10
6.7760008748
 20
6.2539593103
 30
0.0
 11
6.5810008748
 21
6.2539593103
 31
0.0
  0
LINE
  5
215
330
1F
100
AcDbEntity
  8
D1
  6
Continuous
100
AcDbLine
 10
6.5810008748
 20
5.8389593103
 30
0.0
 11
6.7760008748
 21
5.8389593103
 31
0.0
  0
LINE
  5
216
330
1F
100
AcDbEntity
  8
D1
  6
Continuous
100
AcDbLine
 10
8.8527428437
 20
6.1714593103
 30
0.0
 11
7.9410008748
 21
6.1714593103
 31
0.0
  0
LINE
  5
217
330
1F
100
AcDbEntity
  8
D1
  6
Continuous
100
AcDbLine
 10
8.5953633348
 20
5.9214593103
 30
0.0
 11
7.9410008748
 21
5.9214593103
 31
0.0
  0
LINE
  5
218
330
1F
100
AcDbEntity
  8
SOCKET
 62
     7
370
    18
100
AcDbLine
 10
2.011174096
 20
8.8623341364
 30
0.0
 11
1.9480218928
 21
8.8090228834
 31
0.0
  0
LINE
  5
219
330
1F
100
AcDbEntity
  8
SOCKET
 62
     7
370
    18
100
AcDbLine
 10
2.1287800826
 20
8.7522536216
 30
0.0
 11
2.0797552254
 21
8.6857190154
 31
0.0
  0
LINE
  5
21A
330
1F
100
AcDbEntity
  8
SOCKET
 62
     7
370
    18
100
AcDbLine
 10
3.0726585352
 20
8.874504918
 30
0.0
 11
3.1370164889
 21
8.8226556725
 31
0.0
  0
LINE
  5
21B
330
1F
100
AcDbEntity
  8
SOCKET
 62
     7
370
    18
100
AcDbLine
 10
2.9664952243
 20
8.7687428858
 30
0.0
 11
3.0181003765
 21
8.7041890422
 31
0.0
  0
LINE
  5
21C
330
1F
100
AcDbEntity
  8
SOCKET
 62
     7
370
    18
100
AcDbLine
 10
2.9037894337
 20
8.724125698
 30
0.0
 11
2.9478620918
 21
8.6542122425
 31
0.0
  0
LINE
  5
21D
330
1F
100
AcDbEntity
  8
SOCKET
 62
     7
370
    18
100
AcDbLine
 10
2.7669178786
 20
8.6577252662
 30
0.0
 11
2.7945489265
 21
8.5798355002
 31
0.0
  0
LINE
  5
21E
330
1F
100
AcDbEntity
  8
SOCKET
 62
     7
370
    18
100
AcDbLine
 10
2.3458484622
 20
9.9670765268
 30
0.0
 11
2.3228988087
 21
10.0464717651
 31
0.0
  0
LINE
  5
21F
330
1F
100
AcDbEntity
  8
SOCKET
 62
     7
370
    18
100
AcDbLine
 10
2.1354122798
 20
9.8648416444
 30
0.0
 11
2.0871841111
 21
9.9319559812
 31
0.0
  0
LINE
  5
220
330
1F
100
AcDbEntity
  8
SOCKET
 62
     7
370
    18
100
AcDbLine
 10
2.0191771572
 20
9.7592456008
 30
0.0
 11
1.9569863168
 21
9.8136752786
 31
0.0
  0
LINE
  5
221
330
1F
100
AcDbEntity
  8
SOCKET
 62
     7
370
    18
100
AcDbLine
 10
2.7284049986
 20
9.9669438666
 30
0.0
 11
2.7514097107
 21
10.0463231691
 31
0.0
  0
LINE
  5
222
330
1F
100
AcDbEntity
  8
SLD-0
  6
Continuous
 62
     7
100
AcDbLine
 10
4.7226132541
 20
9.2858431498
 30
0.0
 11
5.2654280009
 21
9.2858431498
 31
0.0
  0
LINE
  5
223
330
1F
100
AcDbEntity
  8
SLD-0
  6
Continuous
 62
     7
100
AcDbLine
 10
4.7226132541
 20
9.3330872443
 30
0.0
 11
5.2654280009
 21
9.3330872443
 31
0.0
  0
LINE
  5
224
330
1F
100
AcDbEntity
  8
SLD-0
  6
Continuous
 62
     7
100
AcDbLine
 10
5.2654280009
 20
9.2858431498
 30
0.0
 11
5.2654280009
 21
8.7430284029
 31
0.0
  0
LINE
  5
225
330
1F
100
AcDbEntity
  8
SLD-0
  6
Continuous
 62
     7
100
AcDbLine
 10
5.3126720954
 20
9.2858431498
 30
0.0
 11
5.3126720954
 21
8.7430284029
 31
0.0
  0
LINE
  5
226
330
1F
100
AcDbEntity
  8
SLD-0
  6
Continuous
 62
     7
100
AcDbLine
 10
5.3126720954
 20
9.3330872443
 30
0.0
 11
5.8554868422
 21
9.3330872443
 31
0.0
  0
LINE
  5
227
330
1F
100
AcDbEntity
  8
SLD-0
  6
Continuous
 62
     7
100
AcDbLine
 10
5.3126720954
 20
9.2858431498
 30
0.0
 11
5.8554868422
 21
9.2858431498
 31
0.0
  0
LINE
  5
228
330
1F
100
AcDbEntity
  8
SLD-0
  6
Continuous
 62
     7
100
AcDbLine
 10
5.3126720954
 20
9.8759019911
 30
0.0
 11
5.3126720954
 21
9.3330872443
 31
0.0
  0
LINE
  5
229
330
1F
100
AcDbEntity
  8
SLD-0
  6
Continuous
 62
     7
100
AcDbLine
 10
5.2654280009
 20
9.8759019911
 30
0.0
 11
5.2654280009
 21
9.3330872443
 31
0.0
  0
CIRCLE
  5
22A
330
1F
100
AcDbEntity
  8
D1
100
AcDbCircle
 10
5.9963276103
 20
6.0464593103
 30
0.0
 40
0.1200893751031966
  0
ARC
  5
22B
330
1F
100
AcDbEntity
  8
D1
100
AcDbCircle
 10
5.9963276103
 20
6.0464593103
 30
0.0
 40
0.1375999999999992
100
AcDbArc
 50
233.616006527
 51
289.531914023
  0
ARC
  5
22C
330
1F
100
AcDbEntity
  8
D1
100
AcDbCircle
 10
5.9963276103
 20
6.0464593103
 30
0.0
 40
0.1541291142600574
100
AcDbArc
 50
289.531914023
 51
302.226871376
  0
ARC
  5
22D
330
1F
100
AcDbEntity
  8
D1
100
AcDbCircle
 10
5.9963276103
 20
6.0464593103
 30
0.0
 40
0.1376000000000005
100
AcDbArc
 50
302.226871376
 51
308.6392786167
  0
ARC
  5
22E
330
1F
100
AcDbEntity
  8
D1
100
AcDbCircle
 10
5.9963276103
 20
6.0464593103
 30
0.0
 40
0.1541291142600577
100
AcDbArc
 50
308.6392786167
 51
321.1437435883
  0
ARC
  5
22F
330
1F
100
AcDbEntity
  8
D1
100
AcDbCircle
 10
5.9963276103
 20
6.0464593103
 30
0.0
 40
0.1375999999999998
100
AcDbArc
 50
321.1437435883
 51
73.8380187241
  0
ARC
  5
230
330
1F
100
AcDbEntity
  8
D1
100
AcDbCircle
 10
5.9963276103
 20
6.0464593103
 30
0.0
 40
0.1541291142600606
100
AcDbArc
 50
73.8380187241
 51
106.1222440445
  0
ARC
  5
231
330
1F
100
AcDbEntity
  8
D1
100
AcDbCircle
 10
5.9963276103
 20
6.0464593103
 30
0.0
 40
0.137600000000001
100
AcDbArc
 50
106.1222440445
 51
125.7009151039
  0
ARC
  5
232
330
1F
100
AcDbEntity
  8
D1
100
AcDbCircle
 10
5.9963276103
 20
6.0464593103
 30
0.0
 40
0.1541291142600593
100
AcDbArc
 50
125.7009151039
 51
138.807452676
  0
ARC
  5
233
330
1F
100
AcDbEntity
  8
D1
100
AcDbCircle
 10
5.9963276103
 20
6.0464593103
 30
0.0
 40
0.1376000000000007
100
AcDbArc
 50
138.807452676
 51
220.1700841704
  0
ARC
  5
234
330
1F
100
AcDbEntity
  8
D1
100
AcDbCircle
 10
5.9963276103
 20
6.0464593103
 30
0.0
 40
0.1541291142600578
100
AcDbArc
 50
220.1700841704
 51
233.616006527
  0
CIRCLE
  5
235
330
1F
100
AcDbEntity
  8
D1
100
AcDbCircle
 10
2.5368975567
 20
9.3061345902
 30
0.0
 40
0.6004468755159862
  0
ARC
  5
236
330
1F
100
AcDbEntity
  8
D1
100
AcDbCircle
 10
2.5368975567
 20
9.3061345902
 30
0.0
 40
0.687999999999996
100
AcDbArc
 50
233.616006527
 51
289.531914023
  0
ARC
  5
237
330
1F
100
AcDbEntity
  8
D1
100
AcDbCircle
 10
2.5368975567
 20
9.3061345902
 30
0.0
 40
0.7706455713002884
100
AcDbArc
 50
289.531914023
 51
302.226871376
  0
ARC
  5
238
330
1F
100
AcDbEntity
  8
D1
100
AcDbCircle
 10
2.5368975567
 20
9.3061345902
 30
0.0
 40
0.6879999999999976
100
AcDbArc
 50
302.226871376
 51
308.6392786167
  0
ARC
  5
239
330
1F
100
AcDbEntity
  8
D1
100
AcDbCircle
 10
2.5368975567
 20
9.3061345902
 30
0.0
 40
0.7706455713002911
100
AcDbArc
 50
308.6392786167
 51
321.1437435883
  0
ARC
  5
23A
330
1F
100
AcDbEntity
  8
D1
100
AcDbCircle
 10
2.5368975567
 20
9.3061345902
 30
0.0
 40
0.6880000000000008
100
AcDbArc
 50
321.1437435883
 51
73.8380187241
  0
ARC
  5
23B
330
1F
100
AcDbEntity
  8
D1
100
AcDbCircle
 10
2.5368975567
 20
9.3061345902
 30
0.0
 40
0.770645571300303
100
AcDbArc
 50
73.8380187241
 51
106.1222440445
  0
ARC
  5
23C
330
1F
100
AcDbEntity
  8
D1
100
AcDbCircle
 10
2.5368975567
 20
9.3061345902
 30
0.0
 40
0.688000000000005
100
AcDbArc
 50
106.1222440445
 51
125.7009151039
  0
ARC
  5
23D
330
1F
100
AcDbEntity
  8
D1
100
AcDbCircle
 10
2.5368975567
 20
9.3061345902
 30
0.0
 40
0.7706455713002964
100
AcDbArc
 50
125.7009151039
 51
138.807452676
  0
ARC
  5
23E
330
1F
100
AcDbEntity
  8
D1
100
AcDbCircle
 10
2.5368975567
 20
9.3061345902
 30
0.0
 40
0.6880000000000032
100
AcDbArc
 50
138.807452676
 51
220.1700841704
  0
ARC
  5
23F
330
1F
100
AcDbEntity
  8
D1
100
AcDbCircle
 10
2.5368975567
 20
9.3061345902
 30
0.0
 40
0.7706455713002924
100
AcDbArc
 50
220.1700841704
 51
233.616006527
  0
ARC
  5
240
330
1F
100
AcDbEntity
  8
BORDER
370
    18
100
AcDbCircle
 10
15.8586556394
 20
2.4725446986
 30
0.0
 40
0.0588317965617441
100
AcDbArc
 50
349.7412366138
 51
24.3551846036
  0
ARC
  5
241
330
1F
100
AcDbEntity
  8
BORDER
370
    18
100
AcDbCircle
 10
15.848987195
 20
2.4728957815
 30
0.0
 40
0.0564231623549933
100
AcDbArc
 50
161.6347057243
 51
248.5677245193
  0
ARC
  5
242
330
1F
100
AcDbEntity
  8
BORDER
100
AcDbCircle
 10
15.480372967
 20
2.4514068275
 30
0.0
 40
0.0589785580760121
100
AcDbArc
 50
358.6532608214
 51
58.6702058363
  0
ARC
  5
243
330
1F
100
AcDbEntity
  8
BORDER
370
    35
100
AcDbCircle
 10
14.8576461702
 20
2.4486630428
 30
0.0
 40
0.063593843287447
100
AcDbArc
 50
277.0938709411
 51
90.0
  0
ARC
  5
244
330
1F
100
AcDbEntity
  8
BORDER
370
    35
100
AcDbCircle
 10
14.8335050741
 20
2.4386182151
 30
0.0
 40
0.0441726361358876
100
AcDbArc
 50
270.0
 51
90.0
  0
ARC
  5
245
330
1F
100
AcDbEntity
  8
BORDER
370
    18
100
AcDbCircle
 10
15.8355122027
 20
2.4733810561
 30
0.0
 40
0.0282922453755889
100
AcDbArc
 50
98.9338159659
 51
174.5852845344
  0
ARC
  5
246
330
1F
100
AcDbEntity
  8
BORDER
370
    18
100
AcDbCircle
 10
15.8411947778
 20
2.4728424221
 30
0.0
 40
0.0340002911621953
100
AcDbArc
 50
174.5852845345
 51
240.1778906141
  0
ARC
  5
247
330
1F
100
AcDbEntity
  8
BORDER
370
    18
100
AcDbCircle
 10
15.854407915
 20
2.4958932301
 30
0.0
 40
0.0605695731092023
100
AcDbArc
 50
240.1778906141
 51
301.3711727431
  0
ARC
  5
248
330
1F
100
AcDbEntity
  8
BORDER
370
    18
100
AcDbCircle
 10
15.8681679167
 20
2.4733252035
 30
0.0
 40
0.0341375193140245
100
AcDbArc
 50
301.3711727431
 51
348.4084207791
  0
ARC
  5
249
330
1F
100
AcDbEntity
  8
BORDER
370
    18
100
AcDbCircle
 10
15.8718261818
 20
2.4725748299
 30
0.0
 40
0.0304030897637179
100
AcDbArc
 50
348.4084207791
 51
79.3402145746
  0
ARC
  5
24A
330
1F
100
AcDbEntity
  8
BORDER
100
AcDbCircle
 10
15.6318929573
 20
2.3346284737
 30
0.0
 40
0.0432132029350684
100
AcDbArc
 50
180.5539663805
 51
247.7804902469
  0
ARC
  5
24B
330
1F
100
AcDbEntity
  8
BORDER
100
AcDbCircle
 10
15.6432616082
 20
2.3624594094
 30
0.0
 40
0.0732765893955614
100
AcDbArc
 50
247.7804902469
 51
307.2286186352
  0
ARC
  5
24C
330
1F
100
AcDbEntity
  8
BORDER
100
AcDbCircle
 10
15.6690746409
 20
2.3284872436
 30
0.0
 40
0.0306102010102411
100
AcDbArc
 50
307.2286186352
 51
76.9898282303
  0
ARC
  5
24D
330
1F
100
AcDbEntity
  8
BORDER
100
AcDbCircle
 10
15.6051111483
 20
2.4423145333
 30
0.0
 40
0.0657294300438977
100
AcDbArc
 50
180.790367422
 51
256.7735290232
  0
ARC
  5
24E
330
1F
100
AcDbEntity
  8
BORDER
100
AcDbCircle
 10
15.6171301216
 20
2.4424803397
 30
0.0
 40
0.077749546892015
100
AcDbArc
 50
109.3499983441
 51
180.790367422
  0
ARC
  5
24F
330
1F
100
AcDbEntity
  8
BORDER
100
AcDbCircle
 10
15.6444226185
 20
2.3647626802
 30
0.0
 40
0.1601201422411861
100
AcDbArc
 50
77.0813389078
 51
109.3499983441
  0
ARC
  5
250
330
1F
100
AcDbEntity
  8
BORDER
100
AcDbCircle
 10
15.6618248002
 20
2.4406310377
 30
0.0
 40
0.0822815682959552
100
AcDbArc
 50
3.2505625253
 51
77.0813389078
  0
ARC
  5
251
330
1F
100
AcDbEntity
  8
BORDER
100
AcDbCircle
 10
15.653902176
 20
2.4438727903
 30
0.0
 40
0.0382841192901006
100
AcDbArc
 50
2.1313799102
 51
69.3442842278
  0
ARC
  5
252
330
1F
100
AcDbEntity
  8
BORDER
100
AcDbCircle
 10
15.6418780855
 20
2.4119774248
 30
0.0
 40
0.0723706722840399
100
AcDbArc
 50
69.3442842278
 51
113.9859680001
  0
ARC
  5
253
330
1F
100
AcDbEntity
  8
BORDER
100
AcDbCircle
 10
15.6249653781
 20
2.4499890384
 30
0.0
 40
0.0307663161794318
100
AcDbArc
 50
113.9859680001
 51
258.2605276852
  0
ARC
  5
254
330
1F
100
AcDbEntity
  8
BORDER
370
    35
100
AcDbCircle
 10
14.5883878695
 20
2.4020376259
 30
0.0
 40
0.1178041755795929
100
AcDbArc
 50
17.2265278366
 51
163.4500293511
  0
ARC
  5
255
330
1F
100
AcDbEntity
  8
BORDER
370
    35
100
AcDbCircle
 10
14.6479891929
 20
2.3867783231
 30
0.0
 40
0.1369586419017713
100
AcDbArc
 50
154.8443107148
 51
206.3346036354
  0
ARC
  5
256
330
1F
100
AcDbEntity
  8
BORDER
370
    35
100
AcDbCircle
 10
14.5881760965
 20
2.3571718884
 30
0.0
 40
0.0702192421709749
100
AcDbArc
 50
206.3346036354
 51
334.0269401504
  0
ARC
  5
257
330
1F
100
AcDbEntity
  8
BORDER
370
    35
100
AcDbCircle
 10
14.5282901314
 20
2.3863453768
 30
0.0
 40
0.1368332139472666
100
AcDbArc
 50
334.0269401504
 51
25.6216431764
  0
ARC
  5
258
330
1F
100
AcDbEntity
  8
BORDER
370
    35
100
AcDbCircle
 10
14.5879675078
 20
2.4149657074
 30
0.0
 40
0.0706477731369858
100
AcDbArc
 50
25.6216431764
 51
154.8443107148
  0
ARC
  5
259
330
1F
100
AcDbEntity
  8
BORDER
370
    35
100
AcDbCircle
 10
14.54087345
 20
2.3873053456
 30
0.0
 40
0.167550131663548
100
AcDbArc
 50
345.1919219231
 51
17.2265278366
  0
ARC
  5
25A
330
1F
100
AcDbEntity
  8
BORDER
370
    35
100
AcDbCircle
 10
14.6353200953
 20
2.3880911322
 30
0.0
 40
0.1667647567257196
100
AcDbArc
 50
163.4500293511
 51
196.0146661586
  0
ARC
  5
25B
330
1F
100
AcDbEntity
  8
BORDER
370
    35
100
AcDbCircle
 10
14.5886123889
 20
2.374684973
 30
0.0
 40
0.1181711878131557
100
AcDbArc
 50
196.0146661586
 51
345.1919219231
  0
ARC
  5
25C
330
1F
100
AcDbEntity
  8
BORDER
370
    35
100
AcDbCircle
 10
14.9549150052
 20
2.2761489753
 30
0.0
 40
0.0391323460833328
100
AcDbArc
 50
185.6272216523
 51
207.3496841287
  0
ARC
  5
25D
330
1F
100
AcDbEntity
  8
BORDER
370
    35
100
AcDbCircle
 10
14.9006114268
 20
2.2714889548
 30
0.0
 40
0.0257857368278233
100
AcDbArc
 50
184.8966936169
 51
211.1003881801
  0
ARC
  5
25E
330
1F
100
AcDbEntity
  8
BORDER
370
    35
100
AcDbCircle
 10
14.8608342043
 20
2.3257401307
 30
0.0
 40
0.0496323755999095
100
AcDbArc
 50
5.6272216523
 51
84.4440248514
  0
ARC
  5
25F
330
1F
100
AcDbEntity
  8
BORDER
370
    35
100
AcDbCircle
 10
14.8175765408
 20
2.3119326734
 30
0.0
 40
0.0534938377340031
100
AcDbArc
 50
4.8966936169
 51
90.0
  0
ARC
  5
260
330
1F
100
AcDbEntity
  8
BORDER
100
AcDbCircle
 10
15.6794362259
 20
2.3297650469
 30
0.0
 40
0.0761695797828981
100
AcDbArc
 50
30.9236736779
 51
79.1735557092
  0
ARC
  5
261
330
1F
100
AcDbEntity
  8
BORDER
100
AcDbCircle
 10
15.6862881874
 20
2.3338697074
 30
0.0
 40
0.0681822389096676
100
AcDbArc
 50
344.0207233602
 51
30.9236736781
  0
ARC
  5
262
330
1F
100
AcDbEntity
  8
BORDER
100
AcDbCircle
 10
15.6706173011
 20
2.3383571283
 30
0.0
 40
0.0844829634666857
100
AcDbArc
 50
291.9488776044
 51
344.02072336
  0
ARC
  5
263
330
1F
100
AcDbEntity
  8
BORDER
100
AcDbCircle
 10
15.6455466296
 20
2.4005689763
 30
0.0
 40
0.1515564500118277
100
AcDbArc
 50
251.9469247489
 51
291.9488776045
  0
ARC
  5
264
330
1F
100
AcDbEntity
  8
BORDER
100
AcDbCircle
 10
15.6269178879
 20
2.3434158034
 30
0.0
 40
0.0914439289898878
100
AcDbArc
 50
204.1587765796
 51
251.9469247489
  0
ARC
  5
265
330
1F
100
AcDbEntity
  8
BORDER
100
AcDbCircle
 10
15.4598349409
 20
2.3094038257
 30
0.0
 40
0.0940653841802546
100
AcDbArc
 50
41.8214311105
 51
67.2111698783
  0
ARC
  5
266
330
1F
100
AcDbEntity
  8
BORDER
100
AcDbCircle
 10
15.4505033268
 20
2.4926042611
 30
0.0
 40
0.106782781340487
100
AcDbArc
 50
295.378395342
 51
313.1575629116
  0
ARC
  5
267
330
1F
100
AcDbEntity
  8
BORDER
100
AcDbCircle
 10
15.4893303674
 20
2.4511962447
 30
0.0
 40
0.0500186826311062
100
AcDbArc
 50
313.1575629116
 51
358.6532608215
  0
ARC
  5
268
330
1F
100
AcDbEntity
  8
BORDER
100
AcDbCircle
 10
15.4799933079
 20
2.3274410583
 30
0.0
 40
0.0670154023023683
100
AcDbArc
 50
5.7976668128
 51
41.8214311105
  0
ARC
  5
269
330
1F
100
AcDbEntity
  8
BORDER
100
AcDbCircle
 10
15.4512539522
 20
2.4454379611
 30
0.0
 40
0.0327543750000001
100
AcDbArc
 50
270.0
 51
90.0000048297
  0
ARC
  5
26A
330
1F
100
AcDbEntity
  8
BORDER
100
AcDbCircle
 10
15.4478829768
 20
2.3425997323
 30
0.0
 40
0.0465217211886261
100
AcDbArc
 50
270.0
 51
313.2275081247
  0
ARC
  5
26B
330
1F
100
AcDbEntity
  8
BORDER
100
AcDbCircle
 10
15.4596745518
 20
2.3665519103
 30
0.0
 40
0.1110893242118866
100
AcDbArc
 50
270.0000000001
 51
297.4526478761
  0
ARC
  5
26C
330
1F
100
AcDbEntity
  8
BORDER
100
AcDbCircle
 10
15.4799933079
 20
2.3274410583
 30
0.0
 40
0.0670154023022724
100
AcDbArc
 50
297.4526478761
 51
341.332311515
  0
ARC
  5
26D
330
1F
100
AcDbEntity
  8
BORDER
100
AcDbCircle
 10
15.4546395888
 20
2.3354115903
 30
0.0
 40
0.0366565708456871
100
AcDbArc
 50
313.2275081247
 51
90.0
  0
ARC
  5
26E
330
1F
100
AcDbEntity
  8
BORDER
370
    18
100
AcDbCircle
 10
15.8540336895
 20
2.4857515961
 30
0.0
 40
0.0702339941178516
100
AcDbArc
 50
248.5677245193
 51
309.147226552
  0
ARC
  5
26F
330
1F
100
AcDbEntity
  8
BORDER
370
    18
100
AcDbCircle
 10
15.8658437767
 20
2.4712437362
 30
0.0
 40
0.0515268789428577
100
AcDbArc
 50
309.147226552
 51
349.7412366138
  0
ARC
  5
270
330
1F
100
AcDbEntity
  8
BORDER
100
AcDbCircle
 10
15.4550108708
 20
2.4097423299
 30
0.0
 40
0.1077552562698116
100
AcDbArc
 50
58.6702058363
 51
90.0
  0
ARC
  5
271
330
1F
100
AcDbEntity
  8
BORDER
370
    18
100
AcDbCircle
 10
15.8720074627
 20
2.4785887662
 30
0.0
 40
0.0441756736543428
100
AcDbArc
 50
24.3551846036
 51
83.0739108805
  0
ARC
  5
272
330
1F
100
AcDbEntity
  8
BORDER
370
    18
100
AcDbCircle
 10
15.8373356342
 20
2.4767639028
 30
0.0
 40
0.0441463048110548
100
AcDbArc
 50
98.1908738864
 51
161.6347057243
  0
ARC
  5
273
330
1F
100
AcDbEntity
  8
SLD-0
  6
Continuous
 62
     7
100
AcDbCircle
 10
10.422344102
 20
4.64673695
 30
0.0
 40
0.0250000000000004
100
AcDbArc
 50
180.0
 51
270.0
  0
ARC
  5
274
330
1F
100
AcDbEntity
  8
SLD-0
  6
Continuous
 62
     7
100
AcDbCircle
 10
10.422344102
 20
5.24673695
 30
0.0
 40
0.0250000000000004
100
AcDbArc
 50
90.0
 51
180.0
  0
CIRCLE
  5
275
330
1F
100
AcDbEntity
  8
SLD-0
  6
Continuous
 62
     7
100
AcDbCircle
 10
10.997344102
 20
5.02173695
 30
0.0
 40
0.0679999999999996
  0
CIRCLE
  5
276
330
1F
100
AcDbEntity
  8
SLD-0
  6
Continuous
 62
     7
100
AcDbCircle
 10
10.997344102
 20
5.02173695
 30
0.0
 40
0.081999999999999
  0
ARC
  5
277
330
1F
100
AcDbEntity
  8
SLD-0
  6
Continuous
 62
     7
100
AcDbCircle
 10
11.572344102
 20
4.64673695
 30
0.0
 40
0.0250000000000004
100
AcDbArc
 50
270.0
 51
0.0
  0
ARC
  5
278
330
1F
100
AcDbEntity
  8
SLD-0
  6
Continuous
 62
     7
100
AcDbCircle
 10
11.572344102
 20
5.24673695
 30
0.0
 40
0.0250000000000004
100
AcDbArc
 50
0.0
 51
90.0
  0
ARC
  5
279
330
1F
100
AcDbEntity
  8
SLD-0
  6
Continuous
 62
     7
100
AcDbCircle
 10
10.422344102
 20
5.8164593103
 30
0.0
 40
0.0250000000000004
100
AcDbArc
 50
180.0
 51
270.0
  0
CIRCLE
  5
27A
330
1F
100
AcDbEntity
  8
SLD-0
  6
Continuous
100
AcDbCircle
 10
10.997344102
 20
7.3414593103
 30
0.0
 40
0.2518769748600782
  0
ARC
  5
27B
330
1F
100
AcDbEntity
  8
SLD-0
  6
Continuous
 62
     7
100
AcDbCircle
 10
10.997344102
 20
7.3414593103
 30
0.0
 40
0.1417322834645675
100
AcDbArc
 50
272.3880154633
 51
357.6119845367
  0
ARC
  5
27C
330
1F
100
AcDbEntity
  8
SLD-0
  6
Continuous
 62
     7
100
AcDbCircle
 10
10.997344102
 20
7.3414593103
 30
0.0
 40
0.1417322834645673
100
AcDbArc
 50
182.3880154633
 51
267.6119845367
  0
CIRCLE
  5
27D
330
1F
100
AcDbEntity
  8
SLD-0
  6
Continuous
 62
     7
100
AcDbCircle
 10
10.997344102
 20
7.3414593103
 30
0.0
 40
0.2362204724409445
  0
ARC
  5
27E
330
1F
100
AcDbEntity
  8
SLD-0
  6
Continuous
 62
     7
100
AcDbCircle
 10
10.997344102
 20
7.3414593103
 30
0.0
 40
0.1417322834645693
100
AcDbArc
 50
92.3880154633
 51
177.6119845367
  0
ARC
  5
27F
330
1F
100
AcDbEntity
  8
SLD-0
  6
Continuous
 62
     7
100
AcDbCircle
 10
10.997344102
 20
7.3414593103
 30
0.0
 40
0.1417322834645675
100
AcDbArc
 50
2.3880154633
 51
87.6119845367
  0
ARC
  5
280
330
1F
100
AcDbEntity
  8
SLD-0
  6
Continuous
 62
     7
100
AcDbCircle
 10
11.572344102
 20
5.8164593103
 30
0.0
 40
0.0250000000000004
100
AcDbArc
 50
270.0
 51
0.0
  0
ARC
  5
281
330
1F
100
AcDbEntity
  8
SLD-0
  6
Continuous
 62
     7
100
AcDbCircle
 10
10.422344102
 20
7.7664593103
 30
0.0
 40
0.0250000000000004
100
AcDbArc
 50
90.0
 51
180.0
  0
ARC
  5
282
330
1F
100
AcDbEntity
  8
SLD-0
  6
Continuous
 62
     7
100
AcDbCircle
 10
11.572344102
 20
7.7664593103
 30
0.0
 40
0.0250000000000004
100
AcDbArc
 50
0.0
 51
90.0
  0
ARC
  5
283
330
1F
100
AcDbEntity
  8
SOCKET
 62
     7
370
    18
100
AcDbCircle
 10
5.9963276103
 20
6.0464593103
 30
0.0
 40
0.1541291142600606
100
AcDbArc
 50
73.8380187241
 51
106.1222440445
  0
CIRCLE
  5
284
330
1F
100
AcDbEntity
  8
SOCKET
 62
     7
100
AcDbCircle
 10
6.0357322978
 20
6.1147102311
 30
0.0
 40
0.0206400000000002
  0
ARC
  5
285
330
1F
100
AcDbEntity
  8
SOCKET
 62
     7
100
AcDbCircle
 10
5.9963276103
 20
6.0464593103
 30
0.0
 40
0.1375999999999992
100
AcDbArc
 50
233.616006527
 51
289.531914023
  0
CIRCLE
  5
286
330
1F
100
AcDbEntity
  8
SOCKET
 62
     7
100
AcDbCircle
 10
6.0357322978
 20
5.9782083894
 30
0.0
 40
0.0206400000000002
  0
CIRCLE
  5
287
330
1F
100
AcDbEntity
  8
SOCKET
 62
     7
370
    18
100
AcDbCircle
 10
5.9963276103
 20
6.0464593103
 30
0.0
 40
0.1200893751031966
  0
CIRCLE
  5
288
330
1F
100
AcDbEntity
  8
SOCKET
 62
     7
370
    18
100
AcDbCircle
 10
5.9963276103
 20
6.0464593103
 30
0.0
 40
0.1705344771498334
  0
CIRCLE
  5
289
330
1F
100
AcDbEntity
  8
SOCKET
 62
     7
370
    18
100
AcDbCircle
 10
5.9963276103
 20
6.0464593103
 30
0.0
 40
0.2075766245389721
  0
CIRCLE
  5
28A
330
1F
100
AcDbEntity
  8
SOCKET
 62
     7
100
AcDbCircle
 10
5.9175182351
 20
6.0464593103
 30
0.0
 40
0.0206400000000002
  0
ARC
  5
28B
330
1F
100
AcDbEntity
  8
SOCKET
 62
     7
100
AcDbCircle
 10
5.9963276103
 20
6.0464593103
 30
0.0
 40
0.1376000000000007
100
AcDbArc
 50
138.807452676
 51
220.1700841704
  0
CIRCLE
  5
28C
330
1F
100
AcDbEntity
  8
SOCKET
 62
     7
100
AcDbCircle
 10
5.9569229227
 20
5.9782083894
 30
0.0
 40
0.0206399999999993
  0
ARC
  5
28D
330
1F
100
AcDbEntity
  8
SOCKET
 62
     7
370
    18
100
AcDbCircle
 10
5.9963276103
 20
6.0464593103
 30
0.0
 40
0.1541291142600578
100
AcDbArc
 50
220.1700841704
 51
233.616006527
  0
ARC
  5
28E
330
1F
100
AcDbEntity
  8
SOCKET
 62
     7
370
    18
100
AcDbCircle
 10
5.9963276103
 20
6.0464593103
 30
0.0
 40
0.1541291142600593
100
AcDbArc
 50
125.7009151039
 51
138.807452676
  0
CIRCLE
  5
28F
330
1F
100
AcDbEntity
  8
SOCKET
 62
     7
100
AcDbCircle
 10
5.9569229227
 20
6.1147102311
 30
0.0
 40
0.0206399999999993
  0
ARC
  5
290
330
1F
100
AcDbEntity
  8
SOCKET
 62
     7
100
AcDbCircle
 10
5.9963276103
 20
6.0464593103
 30
0.0
 40
0.137600000000001
100
AcDbArc
 50
106.1222440445
 51
125.7009151039
  0
CIRCLE
  5
291
330
1F
100
AcDbEntity
  8
SOCKET
 62
     7
100
AcDbCircle
 10
6.0751369854
 20
6.0464593103
 30
0.0
 40
0.0206400000000002
  0
ARC
  5
292
330
1F
100
AcDbEntity
  8
SOCKET
 62
     7
100
AcDbCircle
 10
5.9963276103
 20
6.0464593103
 30
0.0
 40
0.1375999999999998
100
AcDbArc
 50
321.1437435883
 51
73.8380187241
  0
ARC
  5
293
330
1F
100
AcDbEntity
  8
SOCKET
 62
     7
370
    18
100
AcDbCircle
 10
5.9963276103
 20
6.0464593103
 30
0.0
 40
0.1541291142600574
100
AcDbArc
 50
289.531914023
 51
302.226871376
  0
ARC
  5
294
330
1F
100
AcDbEntity
  8
SOCKET
 62
     7
370
    18
100
AcDbCircle
 10
5.9963276103
 20
6.0464593103
 30
0.0
 40
0.1541291142600577
100
AcDbArc
 50
308.6392786167
 51
321.1437435883
  0
ARC
  5
295
330
1F
100
AcDbEntity
  8
SOCKET
 62
     7
100
AcDbCircle
 10
5.9963276103
 20
6.0464593103
 30
0.0
 40
0.1376000000000005
100
AcDbArc
 50
302.226871376
 51
308.6392786167
  0
ARC
  5
296
330
1F
100
AcDbEntity
  8
SOCKET
 62
     7
100
AcDbCircle
 10
2.5368975567
 20
9.3061345902
 30
0.0
 40
0.6880000000000008
100
AcDbArc
 50
321.1437435883
 51
73.8380187241
  0
CIRCLE
  5
297
330
1F
100
AcDbEntity
  8
SOCKET
 62
     7
370
    18
100
AcDbCircle
 10
2.5368975567
 20
9.3061345902
 30
0.0
 40
1.037883122694863
  0
CIRCLE
  5
298
330
1F
100
AcDbEntity
  8
SOCKET
 62
     7
370
    18
100
AcDbCircle
 10
2.5368975567
 20
9.3061345902
 30
0.0
 40
0.8526723857491674
  0
CIRCLE
  5
299
330
1F
100
AcDbEntity
  8
SOCKET
 62
     7
100
AcDbCircle
 10
2.339874119
 20
8.9648799858
 30
0.0
 40
0.1031999999999997
  0
ARC
  5
29A
330
1F
100
AcDbEntity
  8
SOCKET
 62
     7
100
AcDbCircle
 10
2.5368975567
 20
9.3061345902
 30
0.0
 40
0.6880000000000032
100
AcDbArc
 50
138.807452676
 51
220.1700841704
  0
CIRCLE
  5
29B
330
1F
100
AcDbEntity
  8
SOCKET
 62
     7
370
    18
100
AcDbCircle
 10
2.5368975567
 20
9.3061345902
 30
0.0
 40
0.6004468755159871
  0
CIRCLE
  5
29C
330
1F
100
AcDbEntity
  8
SOCKET
 62
     7
100
AcDbCircle
 10
2.7339209945
 20
8.9648799858
 30
0.0
 40
0.1032000000000002
  0
ARC
  5
29D
330
1F
100
AcDbEntity
  8
SOCKET
 62
     7
100
AcDbCircle
 10
2.5368975567
 20
9.3061345902
 30
0.0
 40
0.687999999999996
100
AcDbArc
 50
233.616006527
 51
289.531914023
  0
ARC
  5
29E
330
1F
100
AcDbEntity
  8
SOCKET
 62
     7
370
    18
100
AcDbCircle
 10
2.5368975567
 20
9.3061345902
 30
0.0
 40
0.7706455713002924
100
AcDbArc
 50
220.1700841704
 51
233.616006527
  0
ARC
  5
29F
330
1F
100
AcDbEntity
  8
SOCKET
 62
     7
100
AcDbCircle
 10
2.5368975567
 20
9.3061345902
 30
0.0
 40
0.6879999999999976
100
AcDbArc
 50
302.226871376
 51
308.6392786167
  0
ARC
  5
2A0
330
1F
100
AcDbEntity
  8
SOCKET
 62
     7
370
    18
100
AcDbCircle
 10
2.5368975567
 20
9.3061345902
 30
0.0
 40
0.7706455713002911
100
AcDbArc
 50
308.6392786167
 51
321.1437435883
  0
ARC
  5
2A1
330
1F
100
AcDbEntity
  8
SOCKET
 62
     7
370
    18
100
AcDbCircle
 10
2.5368975567
 20
9.3061345902
 30
0.0
 40
0.7706455713002884
100
AcDbArc
 50
289.531914023
 51
302.226871376
  0
CIRCLE
  5
2A2
330
1F
100
AcDbEntity
  8
SOCKET
 62
     7
100
AcDbCircle
 10
2.339874119
 20
9.6473891947
 30
0.0
 40
0.1031999999999997
  0
ARC
  5
2A3
330
1F
100
AcDbEntity
  8
SOCKET
 62
     7
370
    18
100
AcDbCircle
 10
2.5368975567
 20
9.3061345902
 30
0.0
 40
0.770645571300303
100
AcDbArc
 50
73.8380187241
 51
106.1222440445
  0
ARC
  5
2A4
330
1F
100
AcDbEntity
  8
SOCKET
 62
     7
100
AcDbCircle
 10
2.5368975567
 20
9.3061345902
 30
0.0
 40
0.688000000000005
100
AcDbArc
 50
106.1222440445
 51
125.7009151039
  0
ARC
  5
2A5
330
1F
100
AcDbEntity
  8
SOCKET
 62
     7
370
    18
100
AcDbCircle
 10
2.5368975567
 20
9.3061345902
 30
0.0
 40
0.7706455713002964
100
AcDbArc
 50
125.7009151039
 51
138.807452676
  0
CIRCLE
  5
2A6
330
1F
100
AcDbEntity
  8
SOCKET
 62
     7
100
AcDbCircle
 10
2.1428506812
 20
9.3061345902
 30
0.0
 40
0.1031999999999997
  0
CIRCLE
  5
2A7
330
1F
100
AcDbEntity
  8
SOCKET
 62
     7
100
AcDbCircle
 10
2.9309444322
 20
9.3061345902
 30
0.0
 40
0.1032000000000002
  0
CIRCLE
  5
2A8
330
1F
100
AcDbEntity
  8
SOCKET
 62
     7
100
AcDbCircle
 10
2.7339209945
 20
9.6473891947
 30
0.0
 40
0.1032000000000002
  0
CIRCLE
  5
2A9
330
1F
100
AcDbEntity
  8
SLD-0
  6
Continuous
 62
     7
100
AcDbCircle
 10
5.2890500482
 20
9.309465197
 30
0.0
 40
0.9448818897637814
  0
ARC
  5
2AA
330
1F
100
AcDbEntity
  8
SLD-0
  6
Continuous
 62
     7
100
AcDbCircle
 10
5.2890500482
 20
9.309465197
 30
0.0
 40
0.5669291338582663
100
AcDbArc
 50
92.3880154633
 51
177.6119845367
  0
ARC
  5
2AB
330
1F
100
AcDbEntity
  8
SLD-0
  6
Continuous
 62
     7
100
AcDbCircle
 10
5.2890500482
 20
9.309465197
 30
0.0
 40
0.5669291338582659
100
AcDbArc
 50
182.3880154633
 51
267.6119845367
  0
ARC
  5
2AC
330
1F
100
AcDbEntity
  8
SLD-0
  6
Continuous
 62
     7
100
AcDbCircle
 10
5.2890500482
 20
9.309465197
 30
0.0
 40
0.566929133858266
100
AcDbArc
 50
272.3880154633
 51
357.6119845367
  0
ARC
  5
2AD
330
1F
100
AcDbEntity
  8
SLD-0
  6
Continuous
 62
     7
100
AcDbCircle
 10
5.2890500482
 20
9.309465197
 30
0.0
 40
0.5669291338582702
100
AcDbArc
 50
2.3880154633
 51
87.6119845367
  0
SPLINE
  5
2AE
330
1F
100
AcDbEntity
  8
D1
  6
Continuous
100
AcDbSpline
210
0.0
220
0.0
230
1.0
 70
     8
 71
     3
 72
    10
 73
     6
 74
     0
 42
0.000000001
 43
0.00000001
 40
0.031473046006746
 40
0.031473046006746
 40
0.031473046006746
 40
0.031473046006746
 40
0.1170399418642482
 40
0.2835630723848691
 40
0.3753089788354076
 40
0.3753089788354076
 40
0.3753089788354076
 40
0.3753089788354076
 10
9.310145347936587
 20
6.171459310257761
 30
0.0
 10
9.308506454532655
 20
6.154068501092358
 30
0.0
 10
9.22948801002065
 20
5.986499416155287
 30
0.0
 10
9.102953753120161
 20
6.043029728333817
 30
0.0
 10
9.065921093539632
 20
5.953325344587222
 30
0.0
 10
9.05276583899834
 20
5.921459310253662
 30
0.0
  0
SPLINE
  5
2AF
330
1F
100
AcDbEntity
  8
D1
  6
Continuous
100
AcDbSpline
210
0.0
220
0.0
230
1.0
 70
     8
 71
     3
 72
    10
 73
     6
 74
     0
 42
0.000000001
 43
0.00000001
 40
0.031473046006746
 40
0.031473046006746
 40
0.031473046006746
 40
0.031473046006746
 40
0.1170399418642482
 40
0.2835630723848691
 40
0.3753089788354076
 40
0.3753089788354076
 40
0.3753089788354076
 40
0.3753089788354076
 10
8.852742843696962
 20
6.171459310257761
 30
0.0
 10
8.85110395029303
 20
6.154068501092358
 30
0.0
 10
8.772085505781025
 20
5.986499416155287
 30
0.0
 10
8.645551248880537
 20
6.043029728333817
 30
0.0
 10
8.608518589300008
 20
5.953325344587222
 30
0.0
 10
8.595363334758716
 20
5.921459310253662
 30
0.0
  0
INSERT
  5
2B0
330
1F
100
AcDbEntity
  8
0
  6
Continuous
 62
     7
100
AcDbBlockReference
  2
MANUFACTURING INFO
 10
5.1362740884
 20
-0.9494693005
 30
0.0
 41
0.75
 42
0.75
 43
0.75
  0
INSERT
  5
2B1
330
1F
100
AcDbEntity
  8
0
  6
Continuous
 62
     7
100
AcDbBlockReference
  2
COPYRIGHT
 10
0.3642457035
 20
11.0026283549
 30
0.0
 41
0.75
 42
0.75
 43
0.75
  0
HATCH
  5
2B2
330
1F
100
AcDbEntity
  8
D1
100
AcDbHatch
 10
0.0
 20
0.0
 30
0.0
210
0.0
220
0.0
230
1.0
  2
ANGLE
 70
     0
 71
     0
 91
        1
 92
        0
 93
        4
 72
     1
 10
7.151000874844549
 20
5.823959310253661
 11
7.151000874844549
 21
6.268959310253662
 72
     1
 10
7.151000874844549
 20
6.268959310253662
 11
6.776000874844549
 21
6.268959310253662
 72
     1
 10
6.776000874844549
 20
6.268959310253662
 11
6.776000874844549
 21
5.823959310253661
 72
     1
 10
6.776000874844549
 20
5.823959310253661
 11
7.151000874844549
 21
5.823959310253661
 97
        0
 75
     0
 76
     1
 52
0.0
 41
0.25
 77
     0
 78
     2
 53
0.0
 43
0.0
 44
0.0
 45
0.0
 46
0.06875
 79
     2
 49
0.05
 49
-0.01875
 53
90.0
 43
0.0
 44
0.0
 45
-0.06875
 46
0.0
 79
     2
 49
0.05
 49
-0.01875
 98
        1
 10
0.0
 20
0.0
  0
HATCH
  5
2B3
330
1F
100
AcDbEntity
  8
D1
100
AcDbHatch
 10
0.0
 20
0.0
 30
0.0
210
0.0
220
0.0
230
1.0
  2
SOLID
 70
     1
 71
     0
 91
        2
 92
        0
 93
       20
 72
     2
 10
5.996327610252217
 20
6.046459310253661
 40
0.1375999999999993
 50
233.6160065270017
 51
289.5319140230284
 73
     1
 72
     1
 10
6.042331674634027
 20
5.916777445444606
 11
6.047857884202297
 21
5.901199492240491
 72
     2
 10
5.996327610252217
 20
6.046459310253661
 40
0.1541291142600579
 50
289.5319140230283
 51
302.2268713759929
 73
     1
 72
     1
 10
6.078520517262374
 20
5.916074840703759
 11
6.069705985641535
 21
5.93005753180838
 72
     2
 10
5.996327610252217
 20
6.046459310253661
 40
0.1376000000000003
 50
302.2268713759927
 51
308.6392786167415
 73
     1
 72
     1
 10
6.082247143772785
 20
5.938980969367659
 11
6.092568174199619
 21
5.926070200639562
 72
     2
 10
5.996327610252217
 20
6.046459310253661
 40
0.1541291142600577
 50
308.6392786167415
 51
321.1437435882891
 73
     1
 72
     1
 10
6.116351396681669
 20
5.949763526717216
 11
6.103479805942038
 21
5.960133375802593
 72
     2
 10
5.996327610252217
 20
6.046459310253661
 40
0.1375999999999997
 50
321.1437435882887
 51
433.838018724062
 73
     1
 72
     1
 10
6.034629098629951
 20
6.178621165522307
 11
6.039230041055284
 21
6.194497026035075
 72
     2
 10
5.996327610252217
 20
6.046459310253661
 40
0.15412911426006
 50
73.8380187240613
 51
106.1222440445138
 73
     1
 72
     1
 10
5.95352786065423
 20
6.194526745218074
 11
5.958117791341908
 21
6.178647697560723
 72
     2
 10
5.996327610252217
 20
6.046459310253661
 40
0.1376000000000003
 50
106.1222440445142
 51
125.7009151039485
 73
     1
 72
     1
 10
5.916030554872837
 20
6.158200721097632
 11
5.906384921129291
 21
6.171623588448069
 72
     2
 10
5.996327610252217
 20
6.046459310253661
 40
0.1541291142600587
 50
125.7009151039482
 51
138.8074526760253
 73
     1
 72
     1
 10
5.880345362264358
 20
6.147967447928792
 11
5.892783530343979
 21
6.137081512367474
 72
     2
 10
5.996327610252217
 20
6.046459310253661
 40
0.1376000000000001
 50
138.8074526760255
 51
220.1700841703637
 73
     1
 72
     1
 10
5.891182918100115
 20
5.957699219490753
 11
5.878552477472058
 21
5.947036968895163
 72
     2
 10
5.996327610252217
 20
6.046459310253661
 40
0.1541291142600576
 50
220.170084170364
 51
233.6160065270015
 73
     1
 72
     1
 10
5.904899143984241
 20
5.922376195292457
 11
5.914704115438339
 21
5.935683116536921
 97
        0
 92
        0
 93
        1
 72
     2
 10
5.996327610252217
 20
6.046459310253661
 40
0.1200893751031974
 50
0.0
 51
360.0
 73
     1
 97
        0
 75
     0
 76
     1
 98
        1
 10
0.0
 20
0.0
  0
HATCH
  5
2B4
330
1F
100
AcDbEntity
  8
D1
100
AcDbHatch
 10
0.0
 20
0.0
 30
0.0
210
0.0
220
0.0
230
1.0
  2
SOLID
 70
     1
 71
     0
 91
        2
 92
        0
 93
       20
 72
     2
 10
2.536897556715282
 20
9.306134590229608
 40
0.6879999999999935
 50
233.6160065270017
 51
289.5319140230286
 73
     1
 72
     1
 10
2.766917878624332
 20
8.657725266184336
 11
2.794548926465682
 21
8.579835500163751
 72
     2
 10
2.536897556715282
 20
9.306134590229608
 40
0.7706455713002874
 50
289.5319140230283
 51
302.2268713759929
 73
     1
 72
     1
 10
2.947862091766071
 20
8.654212242480096
 11
2.903789433661875
 21
8.72412569800321
 72
     2
 10
2.536897556715282
 20
9.306134590229608
 40
0.6879999999999961
 50
302.2268713759931
 51
308.6392786167415
 73
     1
 72
     1
 10
2.966495224318124
 20
8.768742885799597
 11
3.018100376452294
 21
8.704189042159115
 72
     2
 10
2.536897556715282
 20
9.306134590229608
 40
0.770645571300286
 50
308.6392786167417
 51
321.1437435882889
 73
     1
 72
     1
 10
3.137016488862538
 20
8.822655672547377
 11
3.072658535164386
 21
8.874504917974267
 72
     2
 10
2.536897556715282
 20
9.306134590229608
 40
0.6879999999999983
 50
321.143743588289
 51
433.838018724062
 73
     1
 72
     1
 10
2.728404998603953
 20
9.96694386657283
 11
2.75140971073062
 21
10.04632316913667
 72
     2
 10
2.536897556715282
 20
9.306134590229608
 40
0.7706455713003003
 50
73.8380187240613
 51
106.1222440445138
 73
     1
 72
     1
 10
2.322898808725348
 20
10.04647176505167
 11
2.345848462163739
 21
9.96707652676491
 72
     2
 10
2.536897556715282
 20
9.306134590229608
 40
0.688000000000003
 50
106.1222440445144
 51
125.7009151039485
 73
     1
 72
     1
 10
2.135412279818383
 20
9.86484164444946
 11
2.087184111100654
 21
9.931955981201646
 72
     2
 10
2.536897556715282
 20
9.306134590229608
 40
0.7706455713002962
 50
125.7009151039482
 51
138.8074526760253
 73
     1
 72
     1
 10
1.95698631677599
 20
9.813675278605261
 11
2.019177157174098
 21
9.759245600798675
 72
     2
 10
2.536897556715282
 20
9.306134590229608
 40
0.6879999999999998
 50
138.807452676025
 51
220.1700841703634
 73
     1
 72
     1
 10
2.011174095954769
 20
8.86233413641507
 11
1.94802189281449
 21
8.80902288343712
 72
     2
 10
2.536897556715282
 20
9.306134590229608
 40
0.7706455713002875
 50
220.1700841703637
 51
233.6160065270017
 73
     1
 72
     1
 10
2.079755225375405
 20
8.685719015423583
 11
2.128780082645894
 21
8.752253621645908
 97
        0
 92
        0
 93
        1
 72
     2
 10
2.536897556715282
 20
9.306134590229608
 40
0.6004468755159863
 50
0.0
 51
360.0
 73
     1
 97
        0
 75
     0
 76
     1
 98
        1
 10
0.0
 20
0.0
  0
HATCH
  5
2B5
330
1F
100
AcDbEntity
  8
BORDER
100
AcDbHatch
 10
0.0
 20
0.0
 30
0.0
210
0.0
220
0.0
230
1.0
  2
SOLID
 70
     1
 71
     0
 91
        1
 92
        0
 93
        4
 72
     1
 10
13.93709704188443
 20
2.206861035643592
 11
17.19331864188442
 21
2.206861035643592
 72
     1
 10
17.19331864188442
 20
2.206861035643592
 11
17.19331864188442
 21
2.225494635643592
 72
     1
 10
17.19331864188442
 20
2.225494635643592
 11
13.93709704188443
 21
2.225494635643592
 72
     1
 10
13.93709704188443
 20
2.225494635643592
 11
13.93709704188443
 21
2.206861035643592
 97
        0
 75
     0
 76
     1
 98
        1
 10
0.0
 20
0.0
  0
HATCH
  5
2B6
330
1F
100
AcDbEntity
  8
BORDER
100
AcDbHatch
 10
0.0
 20
0.0
 30
0.0
210
0.0
220
0.0
230
1.0
  2
SOLID
 70
     1
 71
     0
 91
        1
 92
        0
 93
        4
 72
     1
 10
13.95573064188443
 20
2.565557835643592
 11
17.19331864188442
 21
2.565557835643592
 72
     1
 10
17.19331864188442
 20
2.565557835643592
 11
17.19331864188442
 21
2.612141835643592
 72
     1
 10
17.19331864188442
 20
2.612141835643592
 11
13.90914664188443
 21
2.612141835643592
 72
     1
 10
13.90914664188443
 20
2.612141835643592
 11
13.95573064188443
 21
2.565557835643592
 97
        0
 75
     0
 76
     1
 98
        1
 10
0.0
 20
0.0
  0
HATCH
  5
2B7
330
1F
100
AcDbEntity
  8
BORDER
100
AcDbHatch
 10
0.0
 20
0.0
 30
0.0
210
0.0
220
0.0
230
1.0
  2
SOLID
 70
     1
 71
     0
 91
        1
 92
        0
 93
        4
 72
     1
 10
13.95573064188443
 20
0.5021116272831714
 11
13.95573064188443
 21
2.566061402659054
 72
     1
 10
13.95573064188443
 20
2.566061402659054
 11
13.90914664188443
 21
2.612645402659055
 72
     1
 10
13.90914664188443
 20
2.612645402659055
 11
13.90914664188443
 21
0.5021116272831714
 72
     1
 10
13.90914664188443
 20
0.5021116272831714
 11
13.95573064188443
 21
0.5021116272831714
 97
        0
 75
     0
 76
     1
 98
        1
 10
0.0
 20
0.0
  0
HATCH
  5
2B8
330
1F
100
AcDbEntity
  8
BORDER
100
AcDbHatch
 10
0.0
 20
0.0
 30
0.0
210
0.0
220
0.0
230
1.0
  2
SOLID
 70
     1
 71
     0
 91
        1
 92
        0
 93
        4
 72
     1
 10
15.89585936868594
 20
2.491741739202103
 11
15.90234858433021
 21
2.470291697178188
 72
     1
 10
15.90234858433021
 20
2.470291697178188
 11
15.9183220382238
 21
2.462310286192545
 72
     1
 10
15.9183220382238
 20
2.462310286192545
 11
15.91108406692826
 21
2.501967922027458
 72
     1
 10
15.91108406692826
 20
2.501967922027458
 11
15.89585936868594
 21
2.491741739202103
 97
        0
 75
     0
 76
     1
 98
        1
 10
0.0
 20
0.0
  0
HATCH
  5
2B9
330
1F
100
AcDbEntity
  8
BORDER
100
AcDbHatch
 10
0.0
 20
0.0
 30
0.0
210
0.0
220
0.0
230
1.0
  2
SOLID
 70
     1
 71
     0
 91
        1
 92
        0
 93
        4
 72
     1
 10
15.8075535683746
 20
2.482627929121326
 11
15.82291490085985
 21
2.499107795052449
 72
     1
 10
15.82291490085985
 20
2.499107795052449
 11
15.81049029370266
 21
2.512652890338304
 72
     1
 10
15.81049029370266
 20
2.512652890338304
 11
15.79332174563091
 21
2.488497470411863
 72
     1
 10
15.79332174563091
 20
2.488497470411863
 11
15.8075535683746
 21
2.482627929121326
 97
        0
 75
     0
 76
     1
 98
        1
 10
0.0
 20
0.0
  0
HATCH
  5
2BA
330
1F
100
AcDbEntity
  8
BORDER
100
AcDbHatch
 10
0.0
 20
0.0
 30
0.0
210
0.0
220
0.0
230
1.0
  2
SOLID
 70
     1
 71
     0
 91
        1
 92
        0
 93
        4
 72
     1
 10
15.81003848980603
 20
2.456440744902008
 11
15.8075535683746
 21
2.482627929121326
 72
     1
 10
15.8075535683746
 20
2.482627929121326
 11
15.79332174563091
 21
2.488497470411863
 72
     1
 10
15.79332174563091
 20
2.488497470411863
 11
15.79512896121741
 21
2.450345452023374
 72
     1
 10
15.79512896121741
 20
2.450345452023374
 11
15.81003848980603
 21
2.456440744902008
 97
        0
 75
     0
 76
     1
 98
        1
 10
0.0
 20
0.0
  0
HATCH
  5
2BB
330
1F
100
AcDbEntity
  8
BORDER
100
AcDbHatch
 10
0.0
 20
0.0
 30
0.0
210
0.0
220
0.0
230
1.0
  2
SOLID
 70
     1
 71
     0
 91
        1
 92
        0
 93
        4
 72
     1
 10
14.83350507409794
 20
2.477550151191652
 11
14.76653889437084
 21
2.477550151191652
 72
     1
 10
14.76653889437084
 20
2.477550151191652
 11
14.76653889437084
 21
2.511788449336835
 72
     1
 10
14.76653889437084
 20
2.511788449336835
 11
14.85764617023569
 21
2.517497586131337
 72
     1
 10
14.85764617023569
 20
2.517497586131337
 11
14.83350507409794
 21
2.477550151191652
 97
        0
 75
     0
 76
     1
 98
        1
 10
0.0
 20
0.0
  0
HATCH
  5
2BC
330
1F
100
AcDbEntity
  8
BORDER
100
AcDbHatch
 10
0.0
 20
0.0
 30
0.0
210
0.0
220
0.0
230
1.0
  2
SOLID
 70
     1
 71
     0
 91
        1
 92
        0
 93
        4
 72
     1
 10
14.85599407559098
 20
2.480445272800309
 11
14.87389709336464
 21
2.461444576793408
 72
     1
 10
14.87389709336464
 20
2.461444576793408
 11
14.91458577012296
 21
2.482616780915384
 72
     1
 10
14.91458577012296
 20
2.482616780915384
 11
14.87443960905475
 21
2.510303509382584
 72
     1
 10
14.87443960905475
 20
2.510303509382584
 11
14.85599407559098
 21
2.480445272800309
 97
        0
 75
     0
 76
     1
 98
        1
 10
0.0
 20
0.0
  0
HATCH
  5
2BD
330
1F
100
AcDbEntity
  8
BORDER
100
AcDbHatch
 10
0.0
 20
0.0
 30
0.0
210
0.0
220
0.0
230
1.0
  2
SOLID
 70
     1
 71
     0
 91
        1
 92
        0
 93
        4
 72
     1
 10
14.83350507409794
 20
2.477550151191652
 11
14.85599407559098
 21
2.480445272800309
 72
     1
 10
14.85599407559098
 20
2.480445272800309
 11
14.87443960905475
 21
2.510303509382584
 72
     1
 10
14.87443960905475
 20
2.510303509382584
 11
14.85764617023569
 21
2.517497586131337
 72
     1
 10
14.85764617023569
 20
2.517497586131337
 11
14.83350507409794
 21
2.477550151191652
 97
        0
 75
     0
 76
     1
 98
        1
 10
0.0
 20
0.0
  0
HATCH
  5
2BE
330
1F
100
AcDbEntity
  8
BORDER
100
AcDbHatch
 10
0.0
 20
0.0
 30
0.0
210
0.0
220
0.0
230
1.0
  2
SOLID
 70
     1
 71
     0
 91
        1
 92
        0
 93
        4
 72
     1
 10
14.63565040875735
 20
2.512610075970657
 11
14.68785378002881
 21
2.471408161981999
 72
     1
 10
14.68785378002881
 20
2.471408161981999
 11
14.64888506626279
 21
2.45301445037992
 72
     1
 10
14.64888506626279
 20
2.45301445037992
 11
14.62241575125191
 21
2.475086904302415
 72
     1
 10
14.62241575125191
 20
2.475086904302415
 11
14.63565040875735
 21
2.512610075970657
 97
        0
 75
     0
 76
     1
 98
        1
 10
0.0
 20
0.0
  0
HATCH
  5
2BF
330
1F
100
AcDbEntity
  8
BORDER
100
AcDbHatch
 10
0.0
 20
0.0
 30
0.0
210
0.0
220
0.0
230
1.0
  2
SOLID
 70
     1
 71
     0
 91
        1
 92
        0
 93
        4
 72
     1
 10
14.58762865452397
 20
2.52281423830525
 11
14.63565040875735
 21
2.512610075970657
 72
     1
 10
14.63565040875735
 20
2.512610075970657
 11
14.62241575125191
 21
2.475086904302415
 72
     1
 10
14.62241575125191
 20
2.475086904302415
 11
14.58652175589625
 21
2.485154618740033
 72
     1
 10
14.58652175589625
 20
2.485154618740033
 11
14.58762865452397
 21
2.52281423830525
 97
        0
 75
     0
 76
     1
 98
        1
 10
0.0
 20
0.0
  0
HATCH
  5
2C0
330
1F
100
AcDbEntity
  8
BORDER
100
AcDbHatch
 10
0.0
 20
0.0
 30
0.0
210
0.0
220
0.0
230
1.0
  2
SOLID
 70
     1
 71
     0
 91
        1
 92
        0
 93
        4
 72
     1
 10
14.48247328488984
 20
2.458571357870468
 11
14.51789404097713
 21
2.498446249174815
 72
     1
 10
14.51789404097713
 20
2.498446249174815
 11
14.53781821627623
 21
2.468540080696555
 72
     1
 10
14.53781821627623
 20
2.468540080696555
 11
14.52010783823259
 21
2.431988097000902
 72
     1
 10
14.52010783823259
 20
2.431988097000902
 11
14.48247328488984
 21
2.458571357870468
 97
        0
 75
     0
 76
     1
 98
        1
 10
0.0
 20
0.0
  0
HATCH
  5
2C1
330
1F
100
AcDbEntity
  8
BORDER
100
AcDbHatch
 10
0.0
 20
0.0
 30
0.0
210
0.0
220
0.0
230
1.0
  2
SOLID
 70
     1
 71
     0
 91
        1
 92
        0
 93
        4
 72
     1
 10
14.51789404097713
 20
2.498446249174815
 11
14.58762865452397
 21
2.52281423830525
 72
     1
 10
14.58762865452397
 20
2.52281423830525
 11
14.58652175589625
 21
2.485154618740033
 72
     1
 10
14.58652175589625
 20
2.485154618740033
 11
14.53781821627623
 21
2.468540080696555
 72
     1
 10
14.53781821627623
 20
2.468540080696555
 11
14.51789404097713
 21
2.498446249174815
 97
        0
 75
     0
 76
     1
 98
        1
 10
0.0
 20
0.0
  0
HATCH
  5
2C2
330
1F
100
AcDbEntity
  8
BORDER
100
AcDbHatch
 10
0.0
 20
0.0
 30
0.0
210
0.0
220
0.0
230
1.0
  2
SOLID
 70
     1
 71
     0
 91
        1
 92
        0
 93
        4
 72
     1
 10
14.25041120264619
 20
2.474261811131337
 11
14.03030180264619
 21
2.474261811131337
 72
     1
 10
14.03030180264619
 20
2.474261811131337
 11
14.03030180264619
 21
2.517497586131337
 72
     1
 10
14.03030180264619
 20
2.517497586131337
 11
14.25041120264619
 21
2.517497586131337
 72
     1
 10
14.25041120264619
 20
2.517497586131337
 11
14.25041120264619
 21
2.474261811131337
 97
        0
 75
     0
 76
     1
 98
        1
 10
0.0
 20
0.0
  0
HATCH
  5
2C3
330
1F
100
AcDbEntity
  8
BORDER
100
AcDbHatch
 10
0.0
 20
0.0
 30
0.0
210
0.0
220
0.0
230
1.0
  2
SOLID
 70
     1
 71
     0
 91
        1
 92
        0
 93
        4
 72
     1
 10
14.30281820264619
 20
2.255462586131337
 11
14.25041120264619
 21
2.255462586131337
 72
     1
 10
14.25041120264619
 20
2.255462586131337
 11
14.25041120264619
 21
2.517497586131337
 72
     1
 10
14.25041120264619
 20
2.517497586131337
 11
14.30281820264619
 21
2.517497586131337
 72
     1
 10
14.30281820264619
 20
2.517497586131337
 11
14.30281820264619
 21
2.255462586131337
 97
        0
 75
     0
 76
     1
 98
        1
 10
0.0
 20
0.0
  0
HATCH
  5
2C4
330
1F
100
AcDbEntity
  8
BORDER
100
AcDbHatch
 10
0.0
 20
0.0
 30
0.0
210
0.0
220
0.0
230
1.0
  2
SOLID
 70
     1
 71
     0
 91
        1
 92
        0
 93
        4
 72
     1
 10
14.41156272764618
 20
2.255462586131337
 11
14.41156272764618
 21
2.517497586131337
 72
     1
 10
14.41156272764618
 20
2.517497586131337
 11
14.46396972764618
 21
2.517497586131337
 72
     1
 10
14.46396972764618
 20
2.517497586131337
 11
14.46396972764618
 21
2.255462586131337
 72
     1
 10
14.46396972764618
 20
2.255462586131337
 11
14.41156272764618
 21
2.255462586131337
 97
        0
 75
     0
 76
     1
 98
        1
 10
0.0
 20
0.0
  0
HATCH
  5
2C5
330
1F
100
AcDbEntity
  8
BORDER
100
AcDbHatch
 10
0.0
 20
0.0
 30
0.0
210
0.0
220
0.0
230
1.0
  2
SOLID
 70
     1
 71
     0
 91
        1
 92
        0
 93
        4
 72
     1
 10
14.76653889437084
 20
2.511788449336835
 11
14.76653889437084
 21
2.255462586131337
 72
     1
 10
14.76653889437084
 20
2.255462586131337
 11
14.71300909850256
 21
2.255462586131337
 72
     1
 10
14.71300909850256
 20
2.255462586131337
 11
14.71300909850256
 21
2.517497586131337
 72
     1
 10
14.71300909850256
 20
2.517497586131337
 11
14.76653889437084
 21
2.511788449336835
 97
        0
 75
     0
 76
     1
 98
        1
 10
0.0
 20
0.0
  0
HATCH
  5
2C6
330
1F
100
AcDbEntity
  8
BORDER
100
AcDbHatch
 10
0.0
 20
0.0
 30
0.0
210
0.0
220
0.0
230
1.0
  2
SOLID
 70
     1
 71
     0
 91
        1
 92
        0
 93
        4
 72
     1
 10
14.11415300264619
 20
2.474261811131337
 11
14.11415300264619
 21
2.255462586131338
 72
     1
 10
14.11415300264619
 20
2.255462586131338
 11
14.16656000264619
 21
2.255462586131338
 72
     1
 10
14.16656000264619
 20
2.255462586131338
 11
14.16656000264619
 21
2.474261811131337
 72
     1
 10
14.16656000264619
 20
2.474261811131337
 11
14.11415300264619
 21
2.474261811131337
 97
        0
 75
     0
 76
     1
 98
        1
 10
0.0
 20
0.0
  0
HATCH
  5
2C7
330
1F
100
AcDbEntity
  8
BORDER
100
AcDbHatch
 10
0.0
 20
0.0
 30
0.0
210
0.0
220
0.0
230
1.0
  2
SOLID
 70
     1
 71
     0
 91
        1
 92
        0
 93
        4
 72
     1
 10
14.41156272764618
 20
2.370757986131338
 11
14.41156272764618
 21
2.415303936131337
 72
     1
 10
14.41156272764618
 20
2.415303936131337
 11
14.30281820264619
 21
2.415303936131337
 72
     1
 10
14.30281820264619
 20
2.415303936131337
 11
14.30281820264619
 21
2.370757986131338
 72
     1
 10
14.30281820264619
 20
2.370757986131338
 11
14.41156272764618
 21
2.370757986131338
 97
        0
 75
     0
 76
     1
 98
        1
 10
0.0
 20
0.0
  0
HATCH
  5
2C8
330
1F
100
AcDbEntity
  8
BORDER
100
AcDbHatch
 10
0.0
 20
0.0
 30
0.0
210
0.0
220
0.0
230
1.0
  2
SOLID
 70
     1
 71
     0
 91
        1
 92
        0
 93
        4
 72
     1
 10
14.68785378002881
 20
2.471408161981999
 11
14.70991154253787
 21
2.397097567109597
 72
     1
 10
14.70991154253787
 20
2.397097567109597
 11
14.66432550001913
 21
2.401512057894097
 72
     1
 10
14.66432550001913
 20
2.401512057894097
 11
14.64888506626279
 21
2.45301445037992
 72
     1
 10
14.64888506626279
 20
2.45301445037992
 11
14.68785378002881
 21
2.471408161981999
 97
        0
 75
     0
 76
     1
 98
        1
 10
0.0
 20
0.0
  0
HATCH
  5
2C9
330
1F
100
AcDbEntity
  8
BORDER
100
AcDbHatch
 10
0.0
 20
0.0
 30
0.0
210
0.0
220
0.0
230
1.0
  2
SOLID
 70
     1
 71
     0
 91
        1
 92
        0
 93
        4
 72
     1
 10
14.46727615493814
 20
2.38606134014835
 11
14.48247328488984
 21
2.458571357870468
 72
     1
 10
14.48247328488984
 20
2.458571357870468
 11
14.52010783823259
 21
2.431988097000902
 72
     1
 10
14.52010783823259
 20
2.431988097000902
 11
14.50992116245567
 21
2.382382597827934
 72
     1
 10
14.50992116245567
 20
2.382382597827934
 11
14.46727615493814
 21
2.38606134014835
 97
        0
 75
     0
 76
     1
 98
        1
 10
0.0
 20
0.0
  0
HATCH
  5
2CA
330
1F
100
AcDbEntity
  8
BORDER
100
AcDbHatch
 10
0.0
 20
0.0
 30
0.0
210
0.0
220
0.0
230
1.0
  2
SOLID
 70
     1
 71
     0
 91
        1
 92
        0
 93
        4
 72
     1
 10
14.65697291251611
 20
2.277906315928123
 11
14.58859384873801
 21
2.254362365077462
 72
     1
 10
14.58859384873801
 20
2.254362365077462
 11
14.58859384873801
 21
2.287471045961205
 72
     1
 10
14.58859384873801
 20
2.287471045961205
 11
14.63859144375855
 21
2.302921763706951
 72
     1
 10
14.63859144375855
 20
2.302921763706951
 11
14.65697291251611
 21
2.277906315928123
 97
        0
 75
     0
 76
     1
 98
        1
 10
0.0
 20
0.0
  0
HATCH
  5
2CB
330
1F
100
AcDbEntity
  8
BORDER
100
AcDbHatch
 10
0.0
 20
0.0
 30
0.0
210
0.0
220
0.0
230
1.0
  2
SOLID
 70
     1
 71
     0
 91
        1
 92
        0
 93
        4
 72
     1
 10
14.54153728871867
 20
2.263191346646459
 11
14.486392882446
 21
2.311014996811866
 72
     1
 10
14.486392882446
 20
2.311014996811866
 11
14.52389107871141
 21
2.324994217629446
 72
     1
 10
14.52389107871141
 20
2.324994217629446
 11
14.56065401622652
 21
2.290414039817537
 72
     1
 10
14.56065401622652
 20
2.290414039817537
 11
14.54153728871867
 21
2.263191346646459
 97
        0
 75
     0
 76
     1
 98
        1
 10
0.0
 20
0.0
  0
HATCH
  5
2CC
330
1F
100
AcDbEntity
  8
BORDER
100
AcDbHatch
 10
0.0
 20
0.0
 30
0.0
210
0.0
220
0.0
230
1.0
  2
SOLID
 70
     1
 71
     0
 91
        1
 92
        0
 93
        4
 72
     1
 10
14.58859384873801
 20
2.254362365077462
 11
14.54153728871867
 21
2.263191346646459
 72
     1
 10
14.54153728871867
 20
2.263191346646459
 11
14.56065401622652
 21
2.290414039817537
 72
     1
 10
14.56065401622652
 20
2.290414039817537
 11
14.58859384873801
 21
2.287471045961205
 72
     1
 10
14.58859384873801
 20
2.287471045961205
 11
14.58859384873801
 21
2.254362365077462
 97
        0
 75
     0
 76
     1
 98
        1
 10
0.0
 20
0.0
  0
HATCH
  5
2CD
330
1F
100
AcDbEntity
  8
BORDER
100
AcDbHatch
 10
0.0
 20
0.0
 30
0.0
210
0.0
220
0.0
230
1.0
  2
SOLID
 70
     1
 71
     0
 91
        1
 92
        0
 93
        4
 72
     1
 10
14.486392882446
 20
2.311014996811866
 11
14.46727615493814
 21
2.38606134014835
 72
     1
 10
14.46727615493814
 20
2.38606134014835
 11
14.50992116245567
 21
2.382382597827934
 72
     1
 10
14.50992116245567
 20
2.382382597827934
 11
14.52389107871141
 21
2.324994217629446
 72
     1
 10
14.52389107871141
 20
2.324994217629446
 11
14.486392882446
 21
2.311014996811866
 97
        0
 75
     0
 76
     1
 98
        1
 10
0.0
 20
0.0
  0
HATCH
  5
2CE
330
1F
100
AcDbEntity
  8
BORDER
100
AcDbHatch
 10
0.0
 20
0.0
 30
0.0
210
0.0
220
0.0
230
1.0
  2
SOLID
 70
     1
 71
     0
 91
        1
 92
        0
 93
        4
 72
     1
 10
14.69373585003122
 20
2.319108229916782
 11
14.65697291251611
 21
2.277906315928123
 72
     1
 10
14.65697291251611
 20
2.277906315928123
 11
14.63859144375855
 21
2.302921763706951
 72
     1
 10
14.63859144375855
 20
2.302921763706951
 11
14.66285498251853
 21
2.351481162336442
 72
     1
 10
14.66285498251853
 20
2.351481162336442
 11
14.69373585003122
 21
2.319108229916782
 97
        0
 75
     0
 76
     1
 98
        1
 10
0.0
 20
0.0
  0
HATCH
  5
2CF
330
1F
100
AcDbEntity
  8
BORDER
100
AcDbHatch
 10
0.0
 20
0.0
 30
0.0
210
0.0
220
0.0
230
1.0
  2
SOLID
 70
     1
 71
     0
 91
        1
 92
        0
 93
        4
 72
     1
 10
14.70991154253787
 20
2.397097567109597
 11
14.69373585003122
 21
2.319108229916782
 72
     1
 10
14.69373585003122
 20
2.319108229916782
 11
14.66285498251853
 21
2.351481162336442
 72
     1
 10
14.66285498251853
 20
2.351481162336442
 11
14.66432550001913
 21
2.401512057894097
 72
     1
 10
14.66432550001913
 20
2.401512057894097
 11
14.70991154253787
 21
2.397097567109597
 97
        0
 75
     0
 76
     1
 98
        1
 10
0.0
 20
0.0
  0
HATCH
  5
2D0
330
1F
100
AcDbEntity
  8
BORDER
100
AcDbHatch
 10
0.0
 20
0.0
 30
0.0
210
0.0
220
0.0
230
1.0
  2
SOLID
 70
     1
 71
     0
 91
        1
 92
        0
 93
        4
 72
     1
 10
14.87389709336464
 20
2.461444576793408
 11
14.87932225026575
 21
2.439729495642664
 72
     1
 10
14.87932225026575
 20
2.439729495642664
 11
14.92001092702407
 21
2.426700446952216
 72
     1
 10
14.92001092702407
 20
2.426700446952216
 11
14.91458577012296
 21
2.482616780915384
 72
     1
 10
14.91458577012296
 20
2.482616780915384
 11
14.87389709336464
 21
2.461444576793408
 97
        0
 75
     0
 76
     1
 98
        1
 10
0.0
 20
0.0
  0
HATCH
  5
2D1
330
1F
100
AcDbEntity
  8
BORDER
100
AcDbHatch
 10
0.0
 20
0.0
 30
0.0
210
0.0
220
0.0
230
1.0
  2
SOLID
 70
     1
 71
     0
 91
        1
 92
        0
 93
        4
 72
     1
 10
14.83350507409794
 20
2.399686278919877
 11
14.76653889437084
 21
2.399686278919877
 72
     1
 10
14.76653889437084
 20
2.399686278919877
 11
14.76653889437084
 21
2.36018581116814
 72
     1
 10
14.76653889437084
 20
2.36018581116814
 11
14.8175765408089
 21
2.36018581116814
 72
     1
 10
14.8175765408089
 20
2.36018581116814
 11
14.83350507409794
 21
2.399686278919877
 97
        0
 75
     0
 76
     1
 98
        1
 10
0.0
 20
0.0
  0
HATCH
  5
2D2
330
1F
100
AcDbEntity
  8
BORDER
100
AcDbHatch
 10
0.0
 20
0.0
 30
0.0
210
0.0
220
0.0
230
1.0
  2
SOLID
 70
     1
 71
     0
 91
        1
 92
        0
 93
        4
 72
     1
 10
14.8175765408089
 20
2.36018581116814
 11
14.84044033948887
 21
2.362151702374647
 72
     1
 10
14.84044033948887
 20
2.362151702374647
 11
14.86614691446446
 21
2.380355417375364
 72
     1
 10
14.86614691446446
 20
2.380355417375364
 11
14.83350507409794
 21
2.399686278919877
 72
     1
 10
14.83350507409794
 20
2.399686278919877
 11
14.8175765408089
 21
2.36018581116814
 97
        0
 75
     0
 76
     1
 98
        1
 10
0.0
 20
0.0
  0
HATCH
  5
2D3
330
1F
100
AcDbEntity
  8
BORDER
100
AcDbHatch
 10
0.0
 20
0.0
 30
0.0
210
0.0
220
0.0
230
1.0
  2
SOLID
 70
     1
 71
     0
 91
        1
 92
        0
 93
        4
 72
     1
 10
14.84044033948887
 20
2.362151702374647
 11
14.85465917894023
 21
2.348000403239088
 72
     1
 10
14.85465917894023
 20
2.348000403239088
 11
14.88300006167915
 21
2.367852234524531
 72
     1
 10
14.88300006167915
 20
2.367852234524531
 11
14.86614691446446
 21
2.380355417375364
 72
     1
 10
14.86614691446446
 20
2.380355417375364
 11
14.84044033948887
 21
2.362151702374647
 97
        0
 75
     0
 76
     1
 98
        1
 10
0.0
 20
0.0
  0
HATCH
  5
2D4
330
1F
100
AcDbEntity
  8
BORDER
100
AcDbHatch
 10
0.0
 20
0.0
 30
0.0
210
0.0
220
0.0
230
1.0
  2
SOLID
 70
     1
 71
     0
 91
        1
 92
        0
 93
        4
 72
     1
 10
14.87932225026575
 20
2.439729495642664
 11
14.86105881997068
 21
2.39876031259921
 72
     1
 10
14.86105881997068
 20
2.39876031259921
 11
14.88108447780461
 21
2.389424156424392
 72
     1
 10
14.88108447780461
 20
2.389424156424392
 11
14.92001092702407
 21
2.426700446952216
 72
     1
 10
14.92001092702407
 20
2.426700446952216
 11
14.87932225026575
 21
2.439729495642664
 97
        0
 75
     0
 76
     1
 98
        1
 10
0.0
 20
0.0
  0
HATCH
  5
2D5
330
1F
100
AcDbEntity
  8
BORDER
100
AcDbHatch
 10
0.0
 20
0.0
 30
0.0
210
0.0
220
0.0
230
1.0
  2
SOLID
 70
     1
 71
     0
 91
        1
 92
        0
 93
        4
 72
     1
 10
14.83350507409794
 20
2.399686278919877
 11
14.86105881997068
 21
2.39876031259921
 72
     1
 10
14.86105881997068
 20
2.39876031259921
 11
14.88108447780461
 21
2.389424156424392
 72
     1
 10
14.88108447780461
 20
2.389424156424392
 11
14.86614691446446
 21
2.380355417375364
 72
     1
 10
14.86614691446446
 20
2.380355417375364
 11
14.83350507409794
 21
2.399686278919877
 97
        0
 75
     0
 76
     1
 98
        1
 10
0.0
 20
0.0
  0
HATCH
  5
2D6
330
1F
100
AcDbEntity
  8
BORDER
100
AcDbHatch
 10
0.0
 20
0.0
 30
0.0
210
0.0
220
0.0
230
1.0
  2
SOLID
 70
     1
 71
     0
 91
        1
 92
        0
 93
        4
 72
     1
 10
14.87156956928778
 20
2.26274883580767
 11
14.87404461873062
 21
2.255462586131337
 72
     1
 10
14.87404461873062
 20
2.255462586131337
 11
14.92806883275266
 21
2.255462586131337
 72
     1
 10
14.92806883275266
 20
2.255462586131337
 11
14.92017509034986
 21
2.267857647445038
 72
     1
 10
14.92017509034986
 20
2.267857647445038
 11
14.87156956928778
 21
2.26274883580767
 97
        0
 75
     0
 76
     1
 98
        1
 10
0.0
 20
0.0
  0
HATCH
  5
2D7
330
1F
100
AcDbEntity
  8
BORDER
100
AcDbHatch
 10
0.0
 20
0.0
 30
0.0
210
0.0
220
0.0
230
1.0
  2
SOLID
 70
     1
 71
     0
 91
        1
 92
        0
 93
        4
 72
     1
 10
14.91544284242362
 20
2.331120750135455
 11
14.86565356538485
 21
2.316051533604087
 72
     1
 10
14.86565356538485
 20
2.316051533604087
 11
14.86969822948603
 21
2.268840555962012
 72
     1
 10
14.86969822948603
 20
2.268840555962012
 11
14.92118668553889
 21
2.272825705240911
 72
     1
 10
14.92118668553889
 20
2.272825705240911
 11
14.91544284242362
 21
2.331120750135455
 97
        0
 75
     0
 76
     1
 98
        1
 10
0.0
 20
0.0
  0
HATCH
  5
2D8
330
1F
100
AcDbEntity
  8
BORDER
100
AcDbHatch
 10
0.0
 20
0.0
 30
0.0
210
0.0
220
0.0
230
1.0
  2
SOLID
 70
     1
 71
     0
 91
        1
 92
        0
 93
        4
 72
     1
 10
14.86969822948603
 20
2.268840555962012
 11
14.87156956928778
 21
2.26274883580767
 72
     1
 10
14.87156956928778
 20
2.26274883580767
 11
14.92017509034986
 21
2.267857647445038
 72
     1
 10
14.92017509034986
 20
2.267857647445038
 11
14.92118668553889
 21
2.272825705240911
 72
     1
 10
14.92118668553889
 20
2.272825705240911
 11
14.86969822948603
 21
2.268840555962012
 97
        0
 75
     0
 76
     1
 98
        1
 10
0.0
 20
0.0
  0
HATCH
  5
2D9
330
1F
100
AcDbEntity
  8
BORDER
100
AcDbHatch
 10
0.0
 20
0.0
 30
0.0
210
0.0
220
0.0
230
1.0
  2
SOLID
 70
     1
 71
     0
 91
        1
 92
        0
 93
        4
 72
     1
 10
14.86670405410427
 20
2.331693541826044
 11
14.86565356538485
 21
2.316051533604087
 72
     1
 10
14.86565356538485
 20
2.316051533604087
 11
14.91544284242362
 21
2.331120750135455
 72
     1
 10
14.91544284242362
 20
2.331120750135455
 11
14.90921537821265
 21
2.346582415290127
 72
     1
 10
14.90921537821265
 20
2.346582415290127
 11
14.86670405410427
 21
2.331693541826044
 97
        0
 75
     0
 76
     1
 98
        1
 10
0.0
 20
0.0
  0
HATCH
  5
2DA
330
1F
100
AcDbEntity
  8
BORDER
100
AcDbHatch
 10
0.0
 20
0.0
 30
0.0
210
0.0
220
0.0
230
1.0
  2
SOLID
 70
     1
 71
     0
 91
        1
 92
        0
 93
        4
 72
     1
 10
14.85465917894023
 20
2.348000403239088
 11
14.86670405410427
 21
2.331693541826044
 72
     1
 10
14.86670405410427
 20
2.331693541826044
 11
14.90921537821265
 21
2.346582415290127
 72
     1
 10
14.90921537821265
 20
2.346582415290127
 11
14.88300006167915
 21
2.367852234524531
 72
     1
 10
14.88300006167915
 20
2.367852234524531
 11
14.85465917894023
 21
2.348000403239088
 97
        0
 75
     0
 76
     1
 98
        1
 10
0.0
 20
0.0
  0
HATCH
  5
2DB
330
1F
100
AcDbEntity
  8
BORDER
100
AcDbHatch
 10
0.0
 20
0.0
 30
0.0
210
0.0
220
0.0
230
1.0
  2
SOLID
 70
     1
 71
     0
 91
        1
 92
        0
 93
        4
 72
     1
 10
15.79353454971941
 20
2.375149535482117
 11
15.79353454971941
 21
2.401034400922117
 72
     1
 10
15.79353454971941
 20
2.401034400922117
 11
15.91679581371941
 21
2.401034400922117
 72
     1
 10
15.91679581371941
 20
2.401034400922117
 11
15.91679581371941
 21
2.375149535482117
 72
     1
 10
15.91679581371941
 20
2.375149535482117
 11
15.79353454971941
 21
2.375149535482117
 97
        0
 75
     0
 76
     1
 98
        1
 10
0.0
 20
0.0
  0
HATCH
  5
2DC
330
1F
100
AcDbEntity
  8
BORDER
100
AcDbHatch
 10
0.0
 20
0.0
 30
0.0
210
0.0
220
0.0
230
1.0
  2
SOLID
 70
     1
 71
     0
 91
        1
 92
        0
 93
        4
 72
     1
 10
15.89161641999545
 20
2.446098045127957
 11
15.85883331064155
 21
2.435671598797032
 72
     1
 10
15.85883331064155
 20
2.435671598797032
 11
15.86018872233142
 21
2.414676701103957
 72
     1
 10
15.86018872233142
 20
2.414676701103957
 11
15.90085107302768
 21
2.430883480436576
 72
     1
 10
15.90085107302768
 20
2.430883480436576
 11
15.89161641999545
 21
2.446098045127957
 97
        0
 75
     0
 76
     1
 98
        1
 10
0.0
 20
0.0
  0
HATCH
  5
2DD
330
1F
100
AcDbEntity
  8
BORDER
100
AcDbHatch
 10
0.0
 20
0.0
 30
0.0
210
0.0
220
0.0
230
1.0
  2
SOLID
 70
     1
 71
     0
 91
        1
 92
        0
 93
        4
 72
     1
 10
15.9167958214509
 20
2.248806741057629
 11
15.7935345574509
 21
2.248806741057629
 72
     1
 10
15.7935345574509
 20
2.248806741057629
 11
15.7935345574509
 21
2.274691606497629
 72
     1
 10
15.7935345574509
 20
2.274691606497629
 11
15.9167958214509
 21
2.274691606497629
 72
     1
 10
15.9167958214509
 20
2.274691606497629
 11
15.9167958214509
 21
2.248806741057629
 97
        0
 75
     0
 76
     1
 98
        1
 10
0.0
 20
0.0
  0
HATCH
  5
2DE
330
1F
100
AcDbEntity
  8
BORDER
100
AcDbHatch
 10
0.0
 20
0.0
 30
0.0
210
0.0
220
0.0
230
1.0
  2
SOLID
 70
     1
 71
     0
 91
        1
 92
        0
 93
        4
 72
     1
 10
15.91679581371941
 20
2.322147191962117
 11
15.91679581371941
 21
2.296262326522116
 72
     1
 10
15.91679581371941
 20
2.296262326522116
 11
15.79353454971941
 21
2.296262326522116
 72
     1
 10
15.79353454971941
 20
2.296262326522116
 11
15.79353454971941
 21
2.322147191962117
 72
     1
 10
15.79353454971941
 20
2.322147191962117
 11
15.91679581371941
 21
2.322147191962117
 97
        0
 75
     0
 76
     1
 98
        1
 10
0.0
 20
0.0
  0
HATCH
  5
2DF
330
1F
100
AcDbEntity
  8
BORDER
100
AcDbHatch
 10
0.0
 20
0.0
 30
0.0
210
0.0
220
0.0
230
1.0
  2
SOLID
 70
     1
 71
     0
 91
        1
 92
        0
 93
        4
 72
     1
 10
15.79354373506937
 20
2.298062498281337
 11
15.79353454971941
 21
2.322763498282116
 72
     1
 10
15.79353454971941
 20
2.322763498282116
 11
15.91679312807598
 21
2.400370751321433
 72
     1
 10
15.91679312807598
 20
2.400370751321433
 11
15.91679581371941
 21
2.374533229162116
 72
     1
 10
15.91679581371941
 20
2.374533229162116
 11
15.79354373506937
 21
2.298062498281337
 97
        0
 75
     0
 76
     1
 98
        1
 10
0.0
 20
0.0
  0
HATCH
  5
2E0
330
1F
100
AcDbEntity
  8
BORDER
100
AcDbHatch
 10
0.0
 20
0.0
 30
0.0
210
0.0
220
0.0
230
1.0
  2
SOLID
 70
     1
 71
     0
 91
        1
 92
        0
 93
        4
 72
     1
 10
15.83353229243054
 20
2.43770336308991
 11
15.81003848980603
 21
2.456440744902008
 72
     1
 10
15.81003848980603
 20
2.456440744902008
 11
15.79512896121741
 21
2.450345452023374
 72
     1
 10
15.79512896121741
 20
2.450345452023374
 11
15.82088178332504
 21
2.422578006687373
 72
     1
 10
15.82088178332504
 20
2.422578006687373
 11
15.83353229243054
 21
2.43770336308991
 97
        0
 75
     0
 76
     1
 98
        1
 10
0.0
 20
0.0
  0
HATCH
  5
2E1
330
1F
100
AcDbEntity
  8
BORDER
100
AcDbHatch
 10
0.0
 20
0.0
 30
0.0
210
0.0
220
0.0
230
1.0
  2
SOLID
 70
     1
 71
     0
 91
        1
 92
        0
 93
        4
 72
     1
 10
15.85883331064155
 20
2.435671598797032
 11
15.83353229243054
 21
2.43770336308991
 72
     1
 10
15.83353229243054
 20
2.43770336308991
 11
15.82088178332504
 21
2.422578006687373
 72
     1
 10
15.82088178332504
 20
2.422578006687373
 11
15.86018872233142
 21
2.414676701103957
 72
     1
 10
15.86018872233142
 20
2.414676701103957
 11
15.85883331064155
 21
2.435671598797032
 97
        0
 75
     0
 76
     1
 98
        1
 10
0.0
 20
0.0
  0
HATCH
  5
2E2
330
1F
100
AcDbEntity
  8
BORDER
100
AcDbHatch
 10
0.0
 20
0.0
 30
0.0
210
0.0
220
0.0
230
1.0
  2
SOLID
 70
     1
 71
     0
 91
        1
 92
        0
 93
        4
 72
     1
 10
15.90234858433021
 20
2.470291697178188
 11
15.89161641999545
 21
2.446098045127957
 72
     1
 10
15.89161641999545
 20
2.446098045127957
 11
15.90085107302768
 21
2.430883480436576
 72
     1
 10
15.90085107302768
 20
2.430883480436576
 11
15.9183220382238
 21
2.462310286192545
 72
     1
 10
15.9183220382238
 20
2.462310286192545
 11
15.90234858433021
 21
2.470291697178188
 97
        0
 75
     0
 76
     1
 98
        1
 10
0.0
 20
0.0
  0
HATCH
  5
2E3
330
1F
100
AcDbEntity
  8
BORDER
100
AcDbHatch
 10
0.0
 20
0.0
 30
0.0
210
0.0
220
0.0
230
1.0
  2
SOLID
 70
     1
 71
     0
 91
        1
 92
        0
 93
        4
 72
     1
 10
15.8803806759669
 20
2.500859243207886
 11
15.89585936868594
 21
2.491741739202103
 72
     1
 10
15.89585936868594
 20
2.491741739202103
 11
15.91108406692826
 21
2.501967922027458
 72
     1
 10
15.91108406692826
 20
2.501967922027458
 11
15.88300191480824
 21
2.523495035158065
 72
     1
 10
15.88300191480824
 20
2.523495035158065
 11
15.8803806759669
 21
2.500859243207886
 97
        0
 75
     0
 76
     1
 98
        1
 10
0.0
 20
0.0
  0
HATCH
  5
2E4
330
1F
100
AcDbEntity
  8
BORDER
100
AcDbHatch
 10
0.0
 20
0.0
 30
0.0
210
0.0
220
0.0
230
1.0
  2
SOLID
 70
     1
 71
     0
 91
        1
 92
        0
 93
        4
 72
     1
 10
15.8769940412474
 20
2.500030566978762
 11
15.8803806759669
 21
2.500859243207886
 72
     1
 10
15.8803806759669
 20
2.500859243207886
 11
15.88300191480824
 21
2.523495035158065
 72
     1
 10
15.88300191480824
 20
2.523495035158065
 11
15.8769940412474
 21
2.524962330760263
 72
     1
 10
15.8769940412474
 20
2.524962330760263
 11
15.8769940412474
 21
2.500030566978762
 97
        0
 75
     0
 76
     1
 98
        1
 10
0.0
 20
0.0
  0
HATCH
  5
2E5
330
1F
100
AcDbEntity
  8
BORDER
100
AcDbHatch
 10
0.0
 20
0.0
 30
0.0
210
0.0
220
0.0
230
1.0
  2
SOLID
 70
     1
 71
     0
 91
        1
 92
        0
 93
        4
 72
     1
 10
15.82811793283066
 20
2.500440457653154
 11
15.82291490085985
 21
2.499107795052449
 72
     1
 10
15.82291490085985
 20
2.499107795052449
 11
15.81049029370266
 21
2.512652890338304
 72
     1
 10
15.81049029370266
 20
2.512652890338304
 11
15.82651475771361
 21
2.521777623883021
 72
     1
 10
15.82651475771361
 20
2.521777623883021
 11
15.82811793283066
 21
2.500440457653154
 97
        0
 75
     0
 76
     1
 98
        1
 10
0.0
 20
0.0
  0
HATCH
  5
2E6
330
1F
100
AcDbEntity
  8
BORDER
100
AcDbHatch
 10
0.0
 20
0.0
 30
0.0
210
0.0
220
0.0
230
1.0
  2
SOLID
 70
     1
 71
     0
 91
        1
 92
        0
 93
        4
 72
     1
 10
15.83150143558184
 20
2.498894752717687
 11
15.82811793283066
 21
2.500440457653154
 72
     1
 10
15.82811793283066
 20
2.500440457653154
 11
15.82651475771361
 21
2.521777623883021
 72
     1
 10
15.82651475771361
 20
2.521777623883021
 11
15.83150143558184
 21
2.523008868646434
 72
     1
 10
15.83150143558184
 20
2.523008868646434
 11
15.83150143558184
 21
2.498894752717687
 97
        0
 75
     0
 76
     1
 98
        1
 10
0.0
 20
0.0
  0
HATCH
  5
2E7
330
1F
100
AcDbEntity
  8
0
  6
Continuous
 62
     7
100
AcDbHatch
 10
0.0
 20
0.0
 30
0.0
210
0.0
220
0.0
230
1.0
  2
SOLID
 70
     1
 71
     0
 91
        1
 92
        0
 93
        3
 72
     1
 10
12.24245892963081
 20
5.947459310253663
 11
12.19045892963081
 21
5.947459310253663
 72
     1
 10
12.19045892963081
 20
5.947459310253663
 11
12.21645892963081
 21
5.791459310253662
 72
     1
 10
12.21645892963081
 20
5.791459310253662
 11
12.24245892963081
 21
5.947459310253663
 97
        0
 75
     0
 76
     1
 98
        1
 10
0.0
 20
0.0
  0
HATCH
  5
2E8
330
1F
100
AcDbEntity
  8
0
  6
Continuous
 62
     7
100
AcDbHatch
 10
0.0
 20
0.0
 30
0.0
210
0.0
220
0.0
230
1.0
  2
SOLID
 70
     1
 71
     0
 91
        1
 92
        0
 93
        3
 72
     1
 10
12.19045892963081
 20
7.185459310253663
 11
12.24245892963081
 21
7.185459310253663
 72
     1
 10
12.24245892963081
 20
7.185459310253663
 11
12.21645892963081
 21
7.341459310253663
 72
     1
 10
12.21645892963081
 20
7.341459310253663
 11
12.19045892963081
 21
7.185459310253663
 97
        0
 75
     0
 76
     1
 98
        1
 10
0.0
 20
0.0
  0
HATCH
  5
2E9
330
1F
100
AcDbEntity
  8
0
  6
Continuous
 62
     7
100
AcDbHatch
 10
0.0
 20
0.0
 30
0.0
210
0.0
220
0.0
230
1.0
  2
SOLID
 70
     1
 71
     0
 91
        1
 92
        0
 93
        3
 72
     1
 10
11.07311073256428
 20
4.990377458847843
 11
11.22719538067045
 21
4.954741504840726
 72
     1
 10
11.22719538067045
 20
4.954741504840726
 11
11.20730887406781
 21
4.906694373239109
 72
     1
 10
11.20730887406781
 20
4.906694373239109
 11
11.07311073256428
 21
4.990377458847843
 97
        0
 75
     0
 76
     1
 98
        1
 10
0.0
 20
0.0
  0
HATCH
  5
2EA
330
1F
100
AcDbEntity
  8
0
  6
Continuous
 62
     7
100
AcDbHatch
 10
0.0
 20
0.0
 30
0.0
210
0.0
220
0.0
230
1.0
  2
SOLID
 70
     1
 71
     0
 91
        1
 92
        0
 93
        3
 72
     1
 10
11.2028872160174
 20
7.48704103551121
 11
11.31400372892166
 21
7.599580453316701
 72
     1
 10
11.31400372892166
 20
7.599580453316701
 11
11.34449670156645
 21
7.557459453574484
 72
     1
 10
11.34449670156645
 20
7.557459453574484
 11
11.2028872160174
 21
7.48704103551121
 97
        0
 75
     0
 76
     1
 98
        1
 10
0.0
 20
0.0
  0
HATCH
  5
2EB
330
1F
100
AcDbEntity
  8
0
  6
Continuous
 62
     7
100
AcDbHatch
 10
0.0
 20
0.0
 30
0.0
210
0.0
220
0.0
230
1.0
  2
SOLID
 70
     1
 71
     0
 91
        1
 92
        0
 93
        3
 72
     1
 10
10.24134410196173
 20
8.524705365858273
 11
10.24134410196173
 21
8.472705365858273
 72
     1
 10
10.24134410196173
 20
8.472705365858273
 11
10.39734410196173
 21
8.498705365858273
 72
     1
 10
10.39734410196173
 20
8.498705365858273
 11
10.24134410196173
 21
8.524705365858273
 97
        0
 75
     0
 76
     1
 98
        1
 10
0.0
 20
0.0
  0
HATCH
  5
2EC
330
1F
100
AcDbEntity
  8
0
  6
Continuous
 62
     7
100
AcDbHatch
 10
0.0
 20
0.0
 30
0.0
210
0.0
220
0.0
230
1.0
  2
SOLID
 70
     1
 71
     0
 91
        1
 92
        0
 93
        3
 72
     1
 10
11.15334410196173
 20
8.472705365858273
 11
11.15334410196173
 21
8.524705365858273
 72
     1
 10
11.15334410196173
 20
8.524705365858273
 11
10.99734410196173
 21
8.498705365858273
 72
     1
 10
10.99734410196173
 20
8.498705365858273
 11
11.15334410196173
 21
8.472705365858273
 97
        0
 75
     0
 76
     1
 98
        1
 10
0.0
 20
0.0
  0
HATCH
  5
2ED
330
1F
100
AcDbEntity
  8
0
  6
Continuous
 62
     7
100
AcDbHatch
 10
0.0
 20
0.0
 30
0.0
210
0.0
220
0.0
230
1.0
  2
SOLID
 70
     1
 71
     0
 91
        1
 92
        0
 93
        3
 72
     1
 10
12.77750700141598
 20
5.791459310253662
 11
12.75150700141598
 21
5.947459310253661
 72
     1
 10
12.75150700141598
 20
5.947459310253661
 11
12.80350700141598
 21
5.947459310253661
 72
     1
 10
12.80350700141598
 20
5.947459310253661
 11
12.77750700141598
 21
5.791459310253662
 97
        0
 75
     0
 76
     1
 98
        1
 10
0.0
 20
0.0
  0
HATCH
  5
2EE
330
1F
100
AcDbEntity
  8
0
  6
Continuous
 62
     7
100
AcDbHatch
 10
0.0
 20
0.0
 30
0.0
210
0.0
220
0.0
230
1.0
  2
SOLID
 70
     1
 71
     0
 91
        1
 92
        0
 93
        3
 72
     1
 10
12.77750700141599
 20
7.791459310253662
 11
12.75150700141599
 21
7.635459310253663
 72
     1
 10
12.75150700141599
 20
7.635459310253663
 11
12.80350700141599
 21
7.635459310253663
 72
     1
 10
12.80350700141599
 20
7.635459310253663
 11
12.77750700141599
 21
7.791459310253662
 97
        0
 75
     0
 76
     1
 98
        1
 10
0.0
 20
0.0
  0
HATCH
  5
2EF
330
1F
100
AcDbEntity
  8
D1
100
AcDbHatch
 10
0.0
 20
0.0
 30
0.0
210
0.0
220
0.0
230
1.0
  2
SOLID
 70
     1
 71
     0
 91
        1
 92
        0
 93
        3
 72
     1
 10
9.149778400612282
 20
6.446618331262391
 11
9.19402667339503
 21
6.487141045334177
 72
     1
 10
9.19402667339503
 20
6.487141045334177
 11
9.293470679219013
 21
6.334134869950045
 72
     1
 10
9.293470679219013
 20
6.334134869950045
 11
9.149778400612282
 21
6.446618331262391
 97
        0
 75
     0
 76
     1
 98
        1
 10
0.0
 20
0.0
  0
INSERT
  5
2F7
330
1F
100
AcDbEntity
  8
D1
100
AcDbBlockReference
  2
SW_NOTE_1
 10
0.8765729886
 20
2.4959962206
 30
0.0
  0
MTEXT
  5
2F9
330
1F
100
AcDbEntity
  8
SLD-0
100
AcDbMText
 10
9.280104534
 20
4.0834514775
 30
0.0
 40
0.1
 41
0.0
 71
     1
 72
     1
  1
ALL DIMENSIONS ARE IN INCHES
  7
SLDTEXTSTYLE3
 73
     1
 44
1.0
  0
MTEXT
  5
2FB
330
1F
100
AcDbEntity
  8
SLD-0
 62
     7
100
AcDbMText
 10
11.9873871302
 20
6.6793825202
 30
0.0
 40
0.1377952756
 41
0.0
 71
     1
 72
     1
  1
1.550
  7
SLDTEXTSTYLE4
 73
     1
 44
1.0
  0
INSERT
  5
301
330
1F
100
AcDbEntity
  8
SLD-0
 62
     7
100
AcDbBlockReference
  2
SW_NOTE_2
 10
12.055387665
 20
4.738790964
 30
0.0
  0
INSERT
  5
30A
330
1F
100
AcDbEntity
  8
SLD-0
 62
     7
100
AcDbBlockReference
  2
SW_NOTE_3
 10
13.2002576212
 20
8.4976609231
 30
0.0
  0
MTEXT
  5
30B
330
1F
100
AcDbEntity
  8
SLD-0
 62
     7
100
AcDbMText
 10
10.5251685026
 20
8.5562041658
 30
0.0
 40
0.1377952756
 41
0.0
 71
     1
 72
     1
  1
.600
  7
SLDTEXTSTYLE4
 73
     1
 44
1.0
  0
MTEXT
  5
30C
330
1F
100
AcDbEntity
  8
SLD-0
100
AcDbMText
 10
5.9511716457
 20
5.9841404557
 30
0.0
 40
0.01376
 41
0.0
 71
     1
 72
     1
  1
3
  7
SLDTEXTSTYLE0
 73
     1
 44
1.0
  0
MTEXT
  5
30D
330
1F
100
AcDbEntity
  8
SLD-0
100
AcDbMText
 10
5.9125479282
 20
6.052002739
 30
0.0
 40
0.01376
 41
0.0
 71
     1
 72
     1
  1
2
  7
SLDTEXTSTYLE0
 73
     1
 44
1.0
  0
MTEXT
  5
30E
330
1F
100
AcDbEntity
  8
SLD-0
100
AcDbMText
 10
5.9517946098
 20
6.1211101998
 30
0.0
 40
0.01376
 41
0.0
 71
     1
 72
     1
  1
1
  7
SLDTEXTSTYLE0
 73
     1
 44
1.0
  0
MTEXT
  5
30F
330
1F
100
AcDbEntity
  8
SLD-0
100
AcDbMText
 10
6.0296650119
 20
5.9841404575
 30
0.0
 40
0.01376
 41
0.0
 71
     1
 72
     1
  1
4
  7
SLDTEXTSTYLE0
 73
     1
 44
1.0
  0
MTEXT
  5
310
330
1F
100
AcDbEntity
  8
SLD-0
100
AcDbMText
 10
6.030287976
 20
6.120487611
 30
0.0
 40
0.01376
 41
0.0
 71
     1
 72
     1
  1
6
  7
SLDTEXTSTYLE0
 73
     1
 44
1.0
  0
MTEXT
  5
311
330
1F
100
AcDbEntity
  8
SLD-0
100
AcDbMText
 10
6.0701576216
 20
6.0513801501
 30
0.0
 40
0.01376
 41
0.0
 71
     1
 72
     1
  1
5
  7
SLDTEXTSTYLE0
 73
     1
 44
1.0
  0
MTEXT
  5
312
330
1F
100
AcDbEntity
  8
SLD-0
 62
     7
100
AcDbMText
 10
12.7750145292
 20
6.8432743611
 30
0.0
 40
0.1377952756
 41
0.0
 71
     2
 72
     1
  1
2.000
  7
SLDTEXTSTYLE4
 73
     1
 44
1.0
  0
INSERT
  5
319
330
1F
100
AcDbEntity
  8
D1
100
AcDbBlockReference
  2
SW_NOTE_4
 10
7.4909165747
 20
7.0683201305
 30
0.0
  0
MTEXT
  5
31A
330
1F
100
AcDbEntity
  8
SLD-0
100
AcDbMText
 10
2.6858968677
 20
9.0077596553
 30
0.0
 40
0.1
 41
0.0
 71
     1
 72
     1
  1
4
  7
SLDTEXTSTYLE0
 73
     1
 44
1.0
  0
MTEXT
  5
31B
330
1F
100
AcDbEntity
  8
SLD-0
100
AcDbMText
 10
2.3040426904
 20
9.00422423
 30
0.0
 40
0.1
 41
0.0
 71
     1
 72
     1
  1
3
  7
SLDTEXTSTYLE0
 73
     1
 44
1.0
  0
MTEXT
  5
31C
330
1F
100
AcDbEntity
  8
SLD-0
100
AcDbMText
 10
2.3106950325
 20
9.6926083409
 30
0.0
 40
0.1
 41
0.0
 71
     1
 72
     1
  1
1
  7
SLDTEXTSTYLE0
 73
     1
 44
1.0
  0
MTEXT
  5
31D
330
1F
100
AcDbEntity
  8
SLD-0
100
AcDbMText
 10
2.1003114489
 20
9.3470710365
 30
0.0
 40
0.1
 41
0.0
 71
     1
 72
     1
  1
2
  7
SLDTEXTSTYLE0
 73
     1
 44
1.0
  0
MTEXT
  5
31E
330
1F
100
AcDbEntity
  8
SLD-0
100
AcDbMText
 10
2.8918974381
 20
9.3474935345
 30
0.0
 40
0.1
 41
0.0
 71
     1
 72
     1
  1
5
  7
SLDTEXTSTYLE0
 73
     1
 44
1.0
  0
MTEXT
  5
31F
330
1F
100
AcDbEntity
  8
SLD-0
100
AcDbMText
 10
2.6925492098
 20
9.6894954228
 30
0.0
 40
0.1
 41
0.0
 71
     1
 72
     1
  1
6
  7
SLDTEXTSTYLE0
 73
     1
 44
1.0
  0
INSERT
  5
330
330
1F
100
AcDbEntity
  8
D1
100
AcDbBlockReference
  2
SW_NOTE_5
 10
0.7498317661
 20
7.6242201312
 30
0.0
  0
MTEXT
  5
331
330
1F
100
AcDbEntity
  8
SLD-0
100
AcDbMText
 10
4.9536531367
 20
9.6188788299
 30
0.0
 40
0.1
 41
0.0
 71
     1
 72
     1
  1
Q2
  7
SLDTEXTSTYLE0
 73
     1
 44
1.0
  0
MTEXT
  5
332
330
1F
100
AcDbEntity
  8
SLD-0
100
AcDbMText
 10
5.4210370905
 20
9.6188788299
 30
0.0
 40
0.1
 41
0.0
 71
     1
 72
     1
  1
Q1
  7
SLDTEXTSTYLE0
 73
     1
 44
1.0
  0
MTEXT
  5
333
330
1F
100
AcDbEntity
  8
SLD-0
100
AcDbMText
 10
4.9536531367
 20
9.1268628953
 30
0.0
 40
0.1
 41
0.0
 71
     1
 72
     1
  1
Q3
  7
SLDTEXTSTYLE0
 73
     1
 44
1.0
  0
MTEXT
  5
334
330
1F
100
AcDbEntity
  8
SLD-0
100
AcDbMText
 10
5.4210370905
 20
9.1268628953
 30
0.0
 40
0.1
 41
0.0
 71
     1
 72
     1
  1
Q4
  7
SLDTEXTSTYLE0
 73
     1
 44
1.0
  0
MTEXT
  5
335
330
1F
100
AcDbEntity
  8
D1
100
AcDbMText
 10
1.8244629034
 20
8.1626643443
 30
0.0
 40
0.1
 41
0.0
 71
     1
 72
     1
  1
HIROSE CONNECTOR*
  7
SLDTEXTSTYLE2
 73
     1
 44
1.0
  0
MTEXT
  5
336
330
1F
100
AcDbEntity
  8
D1
100
AcDbMText
 10
4.5601872747
 20
8.1626643443
 30
0.0
 40
0.1
 41
0.0
 71
     1
 72
     1
  1
PHOTODIODE DETAIL
  7
SLDTEXTSTYLE2
 73
     1
 44
1.0
  0
MTEXT
  5
337
330
1F
100
AcDbEntity
  8
D1
100
AcDbMText
 10
14.1521626079
 20
0.623124338
 30
0.0
 40
0.0864
 41
0.0
 71
     1
 72
     1
  1
13183-E01
  7
SLDTEXTSTYLE5
 73
     1
 44
1.0
  0
MTEXT
  5
338
330
1F
100
AcDbEntity
  8
D1
100
AcDbMText
 10
15.590515155
 20
0.623124338
 30
0.0
 40
0.0864
 41
0.0
 71
     1
 72
     1
  1
PDQ80A
  7
SLDTEXTSTYLE5
 73
     1
 44
1.0
  0
MTEXT
  5
33A
330
1F
100
AcDbEntity
  8
D1
100
AcDbMText
 10
14.3952480052
 20
2.0967681463
 30
0.0
 40
0.0864
 41
0.0
 71
     1
 72
     1
  1
PDQ80A Quadrant Detector Assembly
  7
SLDTEXTSTYLE7
 73
     1
 44
1.0
  0
MTEXT
  5
33C
330
1F
100
AcDbEntity
  8
D1
100
AcDbMText
 10
14.3952480052
 20
2.8510505149
 30
0.0
 40
0.0864
 41
0.0
 71
     1
 72
     1
  1
ENGINEERING SUPPORT DRAWING
  7
SLDTEXTSTYLE8
 73
     1
 44
1.0
  0
MTEXT
  5
33D
330
1F
100
AcDbEntity
  8
D1
100
AcDbMText
 10
16.2574294443
 20
1.462808304
 30
0.0
 40
0.0864
 41
0.0
 71
     1
 72
     1
  1
RDS
  7
SLDTEXTSTYLE5
 73
     1
 44
1.0
  0
MTEXT
  5
33F
330
1F
100
AcDbEntity
  8
BORDER
100
AcDbMText
 10
16.0643296495
 20
2.3454466788
 30
0.0
 40
0.104814
 41
0.0
 71
     1
 72
     1
  1
NEWTON NJ
  7
SLDTEXTSTYLE9
 73
     1
 44
1.0
  0
MTEXT
  5
341
330
1F
100
AcDbEntity
  8
D1
100
AcDbMText
 10
16.3747540353
 20
0.925524338
 30
0.0
 40
0.0864
 41
0.0
 71
     1
 72
     1
  1
1" = 1"
  7
SLDTEXTSTYLE10
 73
     1
 44
1.0
  0
MTEXT
  5
342
330
1F
100
AcDbEntity
  8
BORDER
100
AcDbMText
 10
15.6651196472
 20
0.9126791711
 30
0.0
 40
0.0652176
 41
0.0
 71
     1
 72
     1
  1
OF
  7
SLDTEXTSTYLE5
 73
     1
 44
1.0
  0
MTEXT
  5
343
330
1F
100
AcDbEntity
  8
BORDER
100
AcDbMText
 10
15.3456950477
 20
1.0168212499
 30
0.0
 40
0.0576
 41
0.0
 71
     1
 72
     1
  1
SHEET
  7
SLDTEXTSTYLE5
 73
     1
 44
1.0
  0
MTEXT
  5
344
330
1F
100
AcDbEntity
  8
BORDER
100
AcDbMText
 10
14.0162898419
 20
2.1786893795
 30
0.0
 40
0.0652176
 41
0.0
 71
     1
 72
     1
  1
TITLE
  7
SLDTEXTSTYLE5
 73
     1
 44
1.0
  0
MTEXT
  5
345
330
1F
100
AcDbEntity
  8
BORDER
100
AcDbMText
 10
14.75020008
 20
1.0165835298
 30
0.0
 40
0.0576
 41
0.0
 71
     1
 72
     1
  1
REV
  7
SLDTEXTSTYLE5
 73
     1
 44
1.0
  0
MTEXT
  5
346
330
1F
100
AcDbEntity
  8
BORDER
100
AcDbMText
 10
14.0100852345
 20
1.5813714958
 30
0.0
 40
0.0576
 41
0.0
 71
     1
 72
     1
  1
DRAWN
  7
SLDTEXTSTYLE5
 73
     1
 44
1.0
  0
MTEXT
  5
347
330
1F
100
AcDbEntity
  8
BORDER
100
AcDbMText
 10
14.0209482419
 20
1.0212419298
 30
0.0
 40
0.0576
 41
0.0
 71
     1
 72
     1
  1
DATE
  7
SLDTEXTSTYLE5
 73
     1
 44
1.0
  0
MTEXT
  5
348
330
1F
100
AcDbEntity
  8
BORDER
100
AcDbMText
 10
14.0162898419
 20
1.2988986305
 30
0.0
 40
0.0652176
 41
0.0
 71
     1
 72
     1
  1
MATERIAL
  7
SLDTEXTSTYLE5
 73
     1
 44
1.0
  0
MTEXT
  5
349
330
1F
100
AcDbEntity
  8
BORDER
100
AcDbMText
 10
14.9794930727
 20
1.5813714958
 30
0.0
 40
0.0576
 41
0.0
 71
     1
 72
     1
  1
ENGINEER
  7
SLDTEXTSTYLE5
 73
     1
 44
1.0
  0
MTEXT
  5
34B
330
1F
100
AcDbEntity
  8
BORDER
100
AcDbMText
 10
15.36735528
 20
0.7487855711
 30
0.0
 40
0.0652176
 41
0.0
 71
     1
 72
     1
  1
PART NO.
  7
SLDTEXTSTYLE11
 73
     1
 44
1.0
  0
MTEXT
  5
34C
330
1F
100
AcDbEntity
  8
BORDER
100
AcDbMText
 10
14.0209482419
 20
0.7487855711
 30
0.0
 40
0.0652176
 41
0.0
 71
     1
 72
     1
  1
DWG NO.
  7
SLDTEXTSTYLE3
 73
     1
 44
1.0
  0
MTEXT
  5
34D
330
1F
100
AcDbEntity
  8
D1
100
AcDbMText
 10
15.8809058906
 20
0.925524338
 30
0.0
 40
0.0864
 41
0.0
 71
     1
 72
     1
  1
1
  7
SLDTEXTSTYLE5
 73
     1
 44
1.0
  0
MTEXT
  5
34E
330
1F
100
AcDbEntity
  8
D1
100
AcDbMText
 10
15.3138625902
 20
1.462808304
 30
0.0
 40
0.0864
 41
0.0
 71
     1
 72
     1
  1
RDS
  7
SLDTEXTSTYLE5
 73
     1
 44
1.0
  0
MTEXT
  5
34F
330
1F
100
AcDbEntity
  8
D1
100
AcDbMText
 10
15.5281058906
 20
0.925524338
 30
0.0
 40
0.0864
 41
0.0
 71
     1
 72
     1
  1
1
  7
SLDTEXTSTYLE5
 73
     1
 44
1.0
  0
MTEXT
  5
350
330
1F
100
AcDbEntity
  8
D1
100
AcDbMText
 10
15.1501621313
 20
0.9127741444
 30
0.0
 40
0.0864
 41
0.0
 71
     2
 72
     1
  1
C
  7
SLDTEXTSTYLE5
 73
     1
 44
1.0
  0
MTEXT
  5
351
330
1F
100
AcDbEntity
  8
BORDER
100
AcDbMText
 10
15.1444597214
 20
1.0182610193
 30
0.0
 40
0.0576
 41
0.0
 71
     2
 72
     1
  1
SIZE
  7
SLDTEXTSTYLE5
 73
     1
 44
1.0
  0
MTEXT
  5
352
330
1F
100
AcDbEntity
  8
D1
100
AcDbMText
 10
14.8249222838
 20
0.9127741444
 30
0.0
 40
0.0864
 41
0.0
 71
     1
 72
     1
  1
D
  7
SLDTEXTSTYLE5
 73
     1
 44
1.0
  0
MTEXT
  5
353
330
1F
100
AcDbEntity
  8
D1
100
AcDbMText
 10
14.260207302
 20
1.462808304
 30
0.0
 40
0.0864
 41
0.0
 71
     1
 72
     1
  1
RDS
  7
SLDTEXTSTYLE5
 73
     1
 44
1.0
  0
MTEXT
  5
354
330
1F
100
AcDbEntity
  8
D1
100
AcDbMText
 10
13.999315155
 20
0.925524338
 30
0.0
 40
0.0864
 41
0.0
 71
     1
 72
     1
  1
09/17/21
  7
SLDTEXTSTYLE5
 73
     1
 44
1.0
  0
MTEXT
  5
356
330
1F
100
AcDbEntity
  8
BORDER
100
AcDbMText
 10
14.002872478
 20
1.7204282721
 30
0.0
 40
0.0623101183
 41
0.0
 71
     1
 72
     1
  1
SURF. FINISH: 32 MICROINCHES UNLESS OTHERWISE NOTED
  7
SLDTEXTSTYLE12
 73
     1
 44
1.0
  0
MTEXT
  5
358
330
1F
100
AcDbEntity
  8
BORDER
100
AcDbMText
 10
14.0162898419
 20
1.8758933795
 30
0.0
 40
0.0652176
 41
0.0
 71
     1
 72
     1
  1
TOL: X.XXX=+/-0.005 X.XX=+/-0.010 ANGULAR +/-30'
  7
SLDTEXTSTYLE13
 73
     1
 44
1.0
  0
MTEXT
  5
359
330
1F
100
AcDbEntity
  8
BORDER
100
AcDbMText
 10
15.8561221509
 20
1.5813714958
 30
0.0
 40
0.0576
 41
0.0
 71
     1
 72
     1
  1
APPROVED
  7
SLDTEXTSTYLE5
 73
     1
 44
1.0
  0
MTEXT
  5
35B
330
1F
100
AcDbEntity
  8
BORDER
100
AcDbMText
 10
16.1766717476
 20
1.0168212499
 30
0.0
 40
0.0576
 41
0.0
 71
     1
 72
     1
  1
DRAWING SCALE
  7
SLDTEXTSTYLE14
 73
     1
 44
1.0
  0
ENDSEC
  0
SECTION
  2
OBJECTS
  0
DICTIONARY
  5
C
330
0
100
AcDbDictionary
281
     1
  3
ACAD_GROUP
350
D
  3
ACAD_LAYOUT
350
1A
  3
ACAD_MLINESTYLE
350
17
  3
ACAD_PLOTSETTINGS
350
19
  3
ACAD_PLOTSTYLENAME
350
E
  3
ACAD_SCALELIST
350
47
  0
DICTIONARY
  5
D
102
{ACAD_REACTORS
330
C
102
}
330
C
100
AcDbDictionary
281
     1
  0
DICTIONARY
  5
1A
102
{ACAD_REACTORS
330
C
102
}
330
C
100
AcDbDictionary
281
     1
  3
Layout1
350
1E
  3
Layout2
350
26
  3
Model
350
22
  0
DICTIONARY
  5
17
102
{ACAD_REACTORS
330
C
102
}
330
C
100
AcDbDictionary
281
     1
  3
Standard
350
18
  0
DICTIONARY
  5
19
102
{ACAD_REACTORS
330
C
102
}
330
C
100
AcDbDictionary
281
     1
  0
ACDBDICTIONARYWDFLT
  5
E
102
{ACAD_REACTORS
330
C
102
}
330
C
100
AcDbDictionary
281
     1
  3
Normal
350
F
100
AcDbDictionaryWithDefault
340
F
  0
DICTIONARY
  5
47
102
{ACAD_REACTORS
330
C
102
}
330
C
100
AcDbDictionary
281
     1
  3
A0
350
48
  3
A1
350
49
  3
A2
350
4A
  3
A3
350
4B
  3
A4
350
4C
  3
A5
350
4D
  3
A6
350
4E
  3
A7
350
4F
  3
A8
350
50
  3
A9
350
51
  3
B0
350
52
  3
B1
350
53
  3
B2
350
54
  3
B3
350
55
  3
B4
350
56
  3
B5
350
57
  3
B6
350
58
  3
B7
350
59
  3
B8
350
5A
  3
B9
350
5B
  3
C0
350
5C
  3
C1
350
5D
  3
C2
350
5E
  3
C3
350
5F
  3
C4
350
60
  3
C5
350
61
  3
C6
350
62
  3
C7
350
63
  3
C8
350
64
  3
C9
350
65
  3
D0
350
66
  3
D1
350
67
  3
D2
350
68
  0
LAYOUT
  5
1E
102
{ACAD_REACTORS
330
1A
102
}
330
1A
100
AcDbPlotSettings
  1

  2
none_device
  4

  6

 40
0.0
 41
0.0
 42
0.0
 43
0.0
 44
0.0
 45
0.0
 46
0.0
 47
0.0
 48
0.0
 49
0.0
140
0.0
141
0.0
142
1.0
143
1.0
 70
   688
 72
     0
 73
     0
 74
     5
  7

 75
    16
147
1.0
148
0.0
149
0.0
100
AcDbLayout
  1
Layout1
 70
     1
 71
     1
 10
0.0
 20
0.0
 11
12.0
 21
9.0
 12
0.0
 22
0.0
 32
0.0
 14
1.0000000000E+20
 24
1.0000000000E+20
 34
1.0000000000E+20
 15
-1.0000000000E+20
 25
-1.0000000000E+20
 35
-1.0000000000E+20
146
0.0
 13
0.0
 23
0.0
 33
0.0
 16
1.0
 26
0.0
 36
0.0
 17
0.0
 27
1.0
 37
0.0
 76
     0
330
1B
  0
LAYOUT
  5
26
102
{ACAD_REACTORS
330
1A
102
}
330
1A
100
AcDbPlotSettings
  1

  2
none_device
  4

  6

 40
0.0
 41
0.0
 42
0.0
 43
0.0
 44
0.0
 45
0.0
 46
0.0
 47
0.0
 48
0.0
 49
0.0
140
0.0
141
0.0
142
1.0
143
1.0
 70
   688
 72
     0
 73
     0
 74
     5
  7

 75
    16
147
1.0
148
0.0
149
0.0
100
AcDbLayout
  1
Layout2
 70
     1
 71
     2
 10
0.0
 20
0.0
 11
0.0
 21
0.0
 12
0.0
 22
0.0
 32
0.0
 14
0.0
 24
0.0
 34
0.0
 15
0.0
 25
0.0
 35
0.0
146
0.0
 13
0.0
 23
0.0
 33
0.0
 16
1.0
 26
0.0
 36
0.0
 17
0.0
 27
1.0
 37
0.0
 76
     0
330
23
  0
LAYOUT
  5
22
102
{ACAD_REACTORS
330
1A
102
}
330
1A
100
AcDbPlotSettings
  1

  2
none_device
  4
Letter_(8.50_x_11.00_Inches)
  6

 40
6.35
 41
6.35
 42
6.35000508
 43
6.35000508
 44
215.9
 45
279.4
 46
0.0
 47
0.0
 48
0.0
 49
0.0
140
0.0
141
0.0
142
1.0
143
1.0
 70
  1712
 72
     0
 73
     0
 74
     0
  7

 75
     0
147
1.0
148
0.0
149
0.0
100
AcDbLayout
  1
Model
 70
     1
 71
     0
 10
0.0
 20
0.0
 11
17.5
 21
12.0
 12
0.0
 22
0.0
 32
0.0
 14
0.0
 24
0.0
 34
0.0
 15
17.5
 25
12.0
 35
0.0
146
0.0
 13
0.0
 23
0.0
 33
0.0
 16
1.0
 26
0.0
 36
0.0
 17
0.0
 27
1.0
 37
0.0
 76
     0
330
1F
331
29
  0
MLINESTYLE
  5
18
102
{ACAD_REACTORS
330
17
102
}
330
17
100
AcDbMlineStyle
  2
Standard
 70
     0
  3

 62
   256
 51
90.0
 52
90.0
 71
     2
 49
0.5
 62
   256
  6
BYLAYER
 49
-0.5
 62
   256
  6
BYLAYER
  0
ACDBPLACEHOLDER
  5
F
102
{ACAD_REACTORS
330
E
102
}
330
E
  0
SCALE
  5
48
102
{ACAD_REACTORS
330
47
102
}
330
47
100
AcDbScale
 70
     0
300
1:1
140
1.0
141
1.0
290
     1
  0
SCALE
  5
49
102
{ACAD_REACTORS
330
47
102
}
330
47
100
AcDbScale
 70
     0
300
1:2
140
1.0
141
2.0
290
     0
  0
SCALE
  5
4A
102
{ACAD_REACTORS
330
47
102
}
330
47
100
AcDbScale
 70
     0
300
1:4
140
1.0
141
4.0
290
     0
  0
SCALE
  5
4B
102
{ACAD_REACTORS
330
47
102
}
330
47
100
AcDbScale
 70
     0
300
1:5
140
1.0
141
5.0
290
     0
  0
SCALE
  5
4C
102
{ACAD_REACTORS
330
47
102
}
330
47
100
AcDbScale
 70
     0
300
1:8
140
1.0
141
8.0
290
     0
  0
SCALE
  5
4D
102
{ACAD_REACTORS
330
47
102
}
330
47
100
AcDbScale
 70
     0
300
1:10
140
1.0
141
10.0
290
     0
  0
SCALE
  5
4E
102
{ACAD_REACTORS
330
47
102
}
330
47
100
AcDbScale
 70
     0
300
1:16
140
1.0
141
16.0
290
     0
  0
SCALE
  5
4F
102
{ACAD_REACTORS
330
47
102
}
330
47
100
AcDbScale
 70
     0
300
1:20
140
1.0
141
20.0
290
     0
  0
SCALE
  5
50
102
{ACAD_REACTORS
330
47
102
}
330
47
100
AcDbScale
 70
     0
300
1:30
140
1.0
141
30.0
290
     0
  0
SCALE
  5
51
102
{ACAD_REACTORS
330
47
102
}
330
47
100
AcDbScale
 70
     0
300
1:40
140
1.0
141
40.0
290
     0
  0
SCALE
  5
52
102
{ACAD_REACTORS
330
47
102
}
330
47
100
AcDbScale
 70
     0
300
1:50
140
1.0
141
50.0
290
     0
  0
SCALE
  5
53
102
{ACAD_REACTORS
330
47
102
}
330
47
100
AcDbScale
 70
     0
300
1:100
140
1.0
141
100.0
290
     0
  0
SCALE
  5
54
102
{ACAD_REACTORS
330
47
102
}
330
47
100
AcDbScale
 70
     0
300
2:1
140
2.0
141
1.0
290
     0
  0
SCALE
  5
55
102
{ACAD_REACTORS
330
47
102
}
330
47
100
AcDbScale
 70
     0
300
4:1
140
4.0
141
1.0
290
     0
  0
SCALE
  5
56
102
{ACAD_REACTORS
330
47
102
}
330
47
100
AcDbScale
 70
     0
300
8:1
140
8.0
141
1.0
290
     0
  0
SCALE
  5
57
102
{ACAD_REACTORS
330
47
102
}
330
47
100
AcDbScale
 70
     0
300
10:1
140
10.0
141
1.0
290
     0
  0
SCALE
  5
58
102
{ACAD_REACTORS
330
47
102
}
330
47
100
AcDbScale
 70
     0
300
100:1
140
100.0
141
1.0
290
     0
  0
SCALE
  5
59
102
{ACAD_REACTORS
330
47
102
}
330
47
100
AcDbScale
 70
     0
300
1/128" = 1'-0"
140
0.0078125
141
12.0
290
     0
  0
SCALE
  5
5A
102
{ACAD_REACTORS
330
47
102
}
330
47
100
AcDbScale
 70
     0
300
1/64" = 1'-0"
140
0.015625
141
12.0
290
     0
  0
SCALE
  5
5B
102
{ACAD_REACTORS
330
47
102
}
330
47
100
AcDbScale
 70
     0
300
1/32" = 1'-0"
140
0.03125
141
12.0
290
     0
  0
SCALE
  5
5C
102
{ACAD_REACTORS
330
47
102
}
330
47
100
AcDbScale
 70
     0
300
1/16" = 1'-0"
140
0.0625
141
12.0
290
     0
  0
SCALE
  5
5D
102
{ACAD_REACTORS
330
47
102
}
330
47
100
AcDbScale
 70
     0
300
3/32" = 1'-0"
140
0.09375
141
12.0
290
     0
  0
SCALE
  5
5E
102
{ACAD_REACTORS
330
47
102
}
330
47
100
AcDbScale
 70
     0
300
1/8" = 1'-0"
140
0.125
141
12.0
290
     0
  0
SCALE
  5
5F
102
{ACAD_REACTORS
330
47
102
}
330
47
100
AcDbScale
 70
     0
300
3/16" = 1'-0"
140
0.1875
141
12.0
290
     0
  0
SCALE
  5
60
102
{ACAD_REACTORS
330
47
102
}
330
47
100
AcDbScale
 70
     0
300
1/4" = 1'-0"
140
0.25
141
12.0
290
     0
  0
SCALE
  5
61
102
{ACAD_REACTORS
330
47
102
}
330
47
100
AcDbScale
 70
     0
300
3/8" = 1'-0"
140
0.375
141
12.0
290
     0
  0
SCALE
  5
62
102
{ACAD_REACTORS
330
47
102
}
330
47
100
AcDbScale
 70
     0
300
1/2" = 1'-0"
140
0.5
141
12.0
290
     0
  0
SCALE
  5
63
102
{ACAD_REACTORS
330
47
102
}
330
47
100
AcDbScale
 70
     0
300
3/4" = 1'-0"
140
0.75
141
12.0
290
     0
  0
SCALE
  5
64
102
{ACAD_REACTORS
330
47
102
}
330
47
100
AcDbScale
 70
     0
300
1" = 1'-0"
140
1.0
141
12.0
290
     0
  0
SCALE
  5
65
102
{ACAD_REACTORS
330
47
102
}
330
47
100
AcDbScale
 70
     0
300
1-1/2" = 1'-0"
140
1.5
141
12.0
290
     0
  0
SCALE
  5
66
102
{ACAD_REACTORS
330
47
102
}
330
47
100
AcDbScale
 70
     0
300
3" = 1'-0"
140
3.0
141
12.0
290
     0
  0
SCALE
  5
67
102
{ACAD_REACTORS
330
47
102
}
330
47
100
AcDbScale
 70
     0
300
6" = 1'-0"
140
6.0
141
12.0
290
     0
  0
SCALE
  5
68
102
{ACAD_REACTORS
330
47
102
}
330
47
100
AcDbScale
 70
     0
300
1'-0" = 1'-0"
140
12.0
141
12.0
290
     0
  0
ENDSEC
  0
EOF
