ISO-10303-21;
HEADER;
FILE_DESCRIPTION (( 'STEP AP203' ),
    '1' );
FILE_NAME ('Web Model 19837_19840.step',
    '2022-01-27T20:33:13',
    ( '' ),
    ( '' ),
    'SwSTEP 2.0',
    'SolidWorks 2021',
    '' );
FILE_SCHEMA (( 'CONFIG_CONTROL_DESIGN' ));
ENDSEC;

DATA;
#1 = APPROVAL_PERSON_ORGANIZATION ( #82, #152, #110 ) ;
#2 = COORDINATED_UNIVERSAL_TIME_OFFSET ( 5, 0, .BEHIND. ) ;
#3 = AXIS2_PLACEMENT_3D ( 'NONE', #44, #158, #74 ) ;
#4 = EDGE_CURVE ( 'NONE', #107, #57, #113, .T. ) ;
#5 = CARTESIAN_POINT ( 'NONE',  ( 0.000000000000000000, 0.000000000000000000, 5.000000000000000000 ) ) ;
#6 = ORIENTED_EDGE ( 'NONE', *, *, #4, .T. ) ;
#7 = VERTEX_POINT ( 'NONE', #9 ) ;
#8 = CIRCLE ( 'NONE', #128, 12.50000000000000000 ) ;
#9 = CARTESIAN_POINT ( 'NONE',  ( -12.50000000000000000, 0.000000000000000000, 5.000000000000000000 ) ) ;
#10 = LOCAL_TIME ( 15, 33, 13.00000000000000000, #2 ) ;
#11 = PERSON_AND_ORGANIZATION_ROLE ( 'creator' ) ;
#12 = MANIFOLD_SOLID_BREP ( 'Boss-Extrude1', #77 ) ;
#13 = DIRECTION ( 'NONE',  ( -0.000000000000000000, -0.000000000000000000, -1.000000000000000000 ) ) ;
#14 = APPROVAL_STATUS ( 'not_yet_approved' ) ;
#15 = APPROVAL_PERSON_ORGANIZATION ( #64, #123, #34 ) ;
#16 = APPLICATION_CONTEXT ( 'configuration controlled 3d designs of mechanical parts and assemblies' ) ;
#17 = DATE_AND_TIME ( #129, #168 ) ;
#18 = SHAPE_DEFINITION_REPRESENTATION ( #94, #104 ) ;
#19 = ADVANCED_FACE ( 'NONE', ( #124 ), #106, .T. ) ;
#20 = CALENDAR_DATE ( 2022, 27, 1 ) ;
#21 = CYLINDRICAL_SURFACE ( 'NONE', #126, 12.50000000000000000 ) ;
#22 = ORIENTED_EDGE ( 'NONE', *, *, #105, .F. ) ;
#23 = ORIENTED_EDGE ( 'NONE', *, *, #4, .F. ) ;
#24 = CC_DESIGN_PERSON_AND_ORGANIZATION_ASSIGNMENT ( #50, #117, ( #97 ) ) ;
#25 = DIRECTION ( 'NONE',  ( 1.000000000000000000, 0.000000000000000000, 0.000000000000000000 ) ) ;
#26 = CALENDAR_DATE ( 2022, 27, 1 ) ;
#27 = DIRECTION ( 'NONE',  ( 0.000000000000000000, 0.000000000000000000, 1.000000000000000000 ) ) ;
#28 = PERSON ( 'UNSPECIFIED', 'UNSPECIFIED', 'UNSPECIFIED', ('UNSPECIFIED'), ('UNSPECIFIED'), ('UNSPECIFIED') ) ;
#29 = APPROVAL ( #115, 'UNSPECIFIED' ) ;
#30 = SECURITY_CLASSIFICATION ( '', '', #54 ) ;
#31 = DIRECTION ( 'NONE',  ( 1.000000000000000000, 0.000000000000000000, 0.000000000000000000 ) ) ;
#32 = DATE_AND_TIME ( #20, #52 ) ;
#33 = CALENDAR_DATE ( 2022, 27, 1 ) ;
#34 = APPROVAL_ROLE ( '' ) ;
#35 = ADVANCED_FACE ( 'NONE', ( #91 ), #21, .T. ) ;
#36 = PERSON_AND_ORGANIZATION ( #28, #63 ) ;
#37 = DIRECTION ( 'NONE',  ( 1.000000000000000000, 0.000000000000000000, -0.000000000000000000 ) ) ;
#38 = DIRECTION ( 'NONE',  ( 1.000000000000000000, 0.000000000000000000, 0.000000000000000000 ) ) ;
#39 = ORIENTED_EDGE ( 'NONE', *, *, #73, .F. ) ;
#40 = VERTEX_POINT ( 'NONE', #169 ) ;
#41 = CC_DESIGN_PERSON_AND_ORGANIZATION_ASSIGNMENT ( #83, #96, ( #125 ) ) ;
#42 = APPLICATION_PROTOCOL_DEFINITION ( 'international standard', 'config_control_design', 1994, #45 ) ;
#43 = DIRECTION ( 'NONE',  ( -0.000000000000000000, -0.000000000000000000, -1.000000000000000000 ) ) ;
#44 = CARTESIAN_POINT ( 'NONE',  ( 0.000000000000000000, 0.000000000000000000, 5.000000000000000000 ) ) ;
#45 = APPLICATION_CONTEXT ( 'configuration controlled 3d designs of mechanical parts and assemblies' ) ;
#46 = FACE_OUTER_BOUND ( 'NONE', #69, .T. ) ;
#47 = CC_DESIGN_APPROVAL ( #152, ( #118 ) ) ;
#48 = CARTESIAN_POINT ( 'NONE',  ( 0.000000000000000000, 0.000000000000000000, 5.000000000000000000 ) ) ;
#49 = CIRCLE ( 'NONE', #144, 12.50000000000000000 ) ;
#50 = PERSON_AND_ORGANIZATION ( #28, #63 ) ;
#51 = APPROVAL_DATE_TIME ( #164, #29 ) ;
#52 = LOCAL_TIME ( 15, 33, 13.00000000000000000, #78 ) ;
#53 = CALENDAR_DATE ( 2022, 27, 1 ) ;
#54 = SECURITY_CLASSIFICATION_LEVEL ( 'unclassified' ) ;
#55 = AXIS2_PLACEMENT_3D ( 'NONE', #48, #43, #114 ) ;
#56 = DESIGN_CONTEXT ( 'detailed design', #16, 'design' ) ;
#57 = VERTEX_POINT ( 'NONE', #134 ) ;
#58 = EDGE_LOOP ( 'NONE', ( #23, #156 ) ) ;
#59 = EDGE_CURVE ( 'NONE', #7, #107, #61, .T. ) ;
#60 = CARTESIAN_POINT ( 'NONE',  ( -12.50000000000000000, 0.000000000000000000, 0.000000000000000000 ) ) ;
#61 = LINE ( 'NONE', #174, #157 ) ;
#62 = CARTESIAN_POINT ( 'NONE',  ( 0.000000000000000000, 0.000000000000000000, 0.000000000000000000 ) ) ;
#63 = ORGANIZATION ( 'UNSPECIFIED', 'UNSPECIFIED', '' ) ;
#64 = PERSON_AND_ORGANIZATION ( #28, #63 ) ;
#65 = ADVANCED_FACE ( 'NONE', ( #102 ), #101, .F. ) ;
#66 = PERSON_AND_ORGANIZATION ( #28, #63 ) ;
#67 = PERSON_AND_ORGANIZATION_ROLE ( 'classification_officer' ) ;
#68 = ORIENTED_EDGE ( 'NONE', *, *, #147, .T. ) ;
#69 = EDGE_LOOP ( 'NONE', ( #170, #93, #121, #136 ) ) ;
#70 =( NAMED_UNIT ( * ) PLANE_ANGLE_UNIT ( ) SI_UNIT ( $, .RADIAN. ) );
#71 = COORDINATED_UNIVERSAL_TIME_OFFSET ( 5, 0, .BEHIND. ) ;
#72 = PERSON_AND_ORGANIZATION ( #28, #63 ) ;
#73 = EDGE_CURVE ( 'NONE', #7, #40, #49, .T. ) ;
#74 = DIRECTION ( 'NONE',  ( 1.000000000000000000, 0.000000000000000000, 0.000000000000000000 ) ) ;
#75 = CIRCLE ( 'NONE', #3, 12.50000000000000000 ) ;
#76 = CC_DESIGN_SECURITY_CLASSIFICATION ( #30, ( #97 ) ) ;
#77 = CLOSED_SHELL ( 'NONE', ( #86, #35, #19, #65 ) ) ;
#78 = COORDINATED_UNIVERSAL_TIME_OFFSET ( 5, 0, .BEHIND. ) ;
#79 = LOCAL_TIME ( 15, 33, 13.00000000000000000, #159 ) ;
#80 = DIRECTION ( 'NONE',  ( -1.000000000000000000, 0.000000000000000000, 0.000000000000000000 ) ) ;
#81 = ORIENTED_EDGE ( 'NONE', *, *, #59, .T. ) ;
#82 = PERSON_AND_ORGANIZATION ( #28, #63 ) ;
#83 = PERSON_AND_ORGANIZATION ( #28, #63 ) ;
#84 = DIRECTION ( 'NONE',  ( 1.000000000000000000, 0.000000000000000000, -0.000000000000000000 ) ) ;
#85 = LINE ( 'NONE', #130, #149 ) ;
#86 = ADVANCED_FACE ( 'NONE', ( #46 ), #111, .T. ) ;
#87 = PRODUCT_RELATED_PRODUCT_CATEGORY ( 'detail', '', ( #125 ) ) ;
#88 = DATE_TIME_ROLE ( 'creation_date' ) ;
#89 = APPROVAL_DATE_TIME ( #165, #123 ) ;
#90 = CC_DESIGN_PERSON_AND_ORGANIZATION_ASSIGNMENT ( #72, #11, ( #118 ) ) ;
#91 = FACE_OUTER_BOUND ( 'NONE', #171, .T. ) ;
#92 = DIRECTION ( 'NONE',  ( 0.000000000000000000, 0.000000000000000000, 1.000000000000000000 ) ) ;
#93 = ORIENTED_EDGE ( 'NONE', *, *, #105, .T. ) ;
#94 = PRODUCT_DEFINITION_SHAPE ( 'NONE', 'NONE',  #118 ) ;
#95 = EDGE_LOOP ( 'NONE', ( #148, #68 ) ) ;
#96 = PERSON_AND_ORGANIZATION_ROLE ( 'design_owner' ) ;
#97 = PRODUCT_DEFINITION_FORMATION_WITH_SPECIFIED_SOURCE ( 'ANY', '', #125, .NOT_KNOWN. ) ;
#98 = DATE_AND_TIME ( #26, #79 ) ;
#99 = APPROVAL_DATE_TIME ( #98, #152 ) ;
#100 = AXIS2_PLACEMENT_3D ( 'NONE', #146, #154, #37 ) ;
#101 = PLANE ( 'NONE',  #116 ) ;
#102 = FACE_OUTER_BOUND ( 'NONE', #58, .T. ) ;
#103 = CC_DESIGN_APPROVAL ( #123, ( #97 ) ) ;
#104 = ADVANCED_BREP_SHAPE_REPRESENTATION ( 'Web Model 19837_19840', ( #12, #108 ), #122 ) ;
#105 = EDGE_CURVE ( 'NONE', #40, #57, #85, .T. ) ;
#106 = PLANE ( 'NONE',  #100 ) ;
#107 = VERTEX_POINT ( 'NONE', #60 ) ;
#108 = AXIS2_PLACEMENT_3D ( 'NONE', #62, #162, #31 ) ;
#109 = APPLICATION_PROTOCOL_DEFINITION ( 'international standard', 'config_control_design', 1994, #16 ) ;
#110 = APPROVAL_ROLE ( '' ) ;
#111 = CYLINDRICAL_SURFACE ( 'NONE', #55, 12.50000000000000000 ) ;
#112 = CC_DESIGN_DATE_AND_TIME_ASSIGNMENT ( #32, #143, ( #30 ) ) ;
#113 = CIRCLE ( 'NONE', #120, 12.50000000000000000 ) ;
#114 = DIRECTION ( 'NONE',  ( -1.000000000000000000, 0.000000000000000000, 0.000000000000000000 ) ) ;
#115 = APPROVAL_STATUS ( 'not_yet_approved' ) ;
#116 = AXIS2_PLACEMENT_3D ( 'NONE', #151, #27, #84 ) ;
#117 = PERSON_AND_ORGANIZATION_ROLE ( 'creator' ) ;
#118 = PRODUCT_DEFINITION ( 'UNKNOWN', '', #97, #56 ) ;
#119 = DIRECTION ( 'NONE',  ( -0.000000000000000000, -0.000000000000000000, -1.000000000000000000 ) ) ;
#120 = AXIS2_PLACEMENT_3D ( 'NONE', #155, #92, #38 ) ;
#121 = ORIENTED_EDGE ( 'NONE', *, *, #175, .T. ) ;
#122 =( GEOMETRIC_REPRESENTATION_CONTEXT ( 3 ) GLOBAL_UNCERTAINTY_ASSIGNED_CONTEXT ( ( #135 ) ) GLOBAL_UNIT_ASSIGNED_CONTEXT ( ( #161, #70, #131 ) ) REPRESENTATION_CONTEXT ( 'NONE', 'WORKASPACE' ) );
#123 = APPROVAL ( #14, 'UNSPECIFIED' ) ;
#124 = FACE_OUTER_BOUND ( 'NONE', #95, .T. ) ;
#125 = PRODUCT ( 'Web Model 19837_19840', 'Web Model 19837_19840', '', ( #173 ) ) ;
#126 = AXIS2_PLACEMENT_3D ( 'NONE', #5, #119, #80 ) ;
#127 = DIRECTION ( 'NONE',  ( -0.000000000000000000, -0.000000000000000000, -1.000000000000000000 ) ) ;
#128 = AXIS2_PLACEMENT_3D ( 'NONE', #138, #140, #25 ) ;
#129 = CALENDAR_DATE ( 2022, 27, 1 ) ;
#130 = CARTESIAN_POINT ( 'NONE',  ( 12.50000000000000000, 1.530808498934191521E-15, 5.000000000000000000 ) ) ;
#131 =( NAMED_UNIT ( * ) SI_UNIT ( $, .STERADIAN. ) SOLID_ANGLE_UNIT ( ) );
#132 = APPROVAL_ROLE ( '' ) ;
#133 = CC_DESIGN_PERSON_AND_ORGANIZATION_ASSIGNMENT ( #66, #67, ( #30 ) ) ;
#134 = CARTESIAN_POINT ( 'NONE',  ( 12.50000000000000000, 1.530808498934191521E-15, 0.000000000000000000 ) ) ;
#135 = UNCERTAINTY_MEASURE_WITH_UNIT (LENGTH_MEASURE( 1.000000000000000082E-05 ), #161, 'distance_accuracy_value', 'NONE');
#136 = ORIENTED_EDGE ( 'NONE', *, *, #59, .F. ) ;
#137 = APPROVAL_STATUS ( 'not_yet_approved' ) ;
#138 = CARTESIAN_POINT ( 'NONE',  ( 0.000000000000000000, 0.000000000000000000, 0.000000000000000000 ) ) ;
#139 = CC_DESIGN_APPROVAL ( #29, ( #30 ) ) ;
#140 = DIRECTION ( 'NONE',  ( 0.000000000000000000, 0.000000000000000000, 1.000000000000000000 ) ) ;
#141 = DIRECTION ( 'NONE',  ( 0.000000000000000000, 0.000000000000000000, 1.000000000000000000 ) ) ;
#142 = PERSON_AND_ORGANIZATION_ROLE ( 'design_supplier' ) ;
#143 = DATE_TIME_ROLE ( 'classification_date' ) ;
#144 = AXIS2_PLACEMENT_3D ( 'NONE', #150, #141, #160 ) ;
#145 = APPROVAL_PERSON_ORGANIZATION ( #153, #29, #132 ) ;
#146 = CARTESIAN_POINT ( 'NONE',  ( 0.000000000000000000, 0.000000000000000000, 5.000000000000000000 ) ) ;
#147 = EDGE_CURVE ( 'NONE', #40, #7, #75, .T. ) ;
#148 = ORIENTED_EDGE ( 'NONE', *, *, #73, .T. ) ;
#149 = VECTOR ( 'NONE', #127, 1000.000000000000000 ) ;
#150 = CARTESIAN_POINT ( 'NONE',  ( 0.000000000000000000, 0.000000000000000000, 5.000000000000000000 ) ) ;
#151 = CARTESIAN_POINT ( 'NONE',  ( 0.000000000000000000, 0.000000000000000000, 0.000000000000000000 ) ) ;
#152 = APPROVAL ( #137, 'UNSPECIFIED' ) ;
#153 = PERSON_AND_ORGANIZATION ( #28, #63 ) ;
#154 = DIRECTION ( 'NONE',  ( 0.000000000000000000, 0.000000000000000000, 1.000000000000000000 ) ) ;
#155 = CARTESIAN_POINT ( 'NONE',  ( 0.000000000000000000, 0.000000000000000000, 0.000000000000000000 ) ) ;
#156 = ORIENTED_EDGE ( 'NONE', *, *, #175, .F. ) ;
#157 = VECTOR ( 'NONE', #13, 1000.000000000000000 ) ;
#158 = DIRECTION ( 'NONE',  ( 0.000000000000000000, 0.000000000000000000, 1.000000000000000000 ) ) ;
#159 = COORDINATED_UNIVERSAL_TIME_OFFSET ( 5, 0, .BEHIND. ) ;
#160 = DIRECTION ( 'NONE',  ( 1.000000000000000000, 0.000000000000000000, 0.000000000000000000 ) ) ;
#161 =( LENGTH_UNIT ( ) NAMED_UNIT ( * ) SI_UNIT ( .MILLI., .METRE. ) );
#162 = DIRECTION ( 'NONE',  ( 0.000000000000000000, 0.000000000000000000, 1.000000000000000000 ) ) ;
#163 = CC_DESIGN_DATE_AND_TIME_ASSIGNMENT ( #17, #88, ( #118 ) ) ;
#164 = DATE_AND_TIME ( #53, #10 ) ;
#165 = DATE_AND_TIME ( #33, #172 ) ;
#166 = COORDINATED_UNIVERSAL_TIME_OFFSET ( 5, 0, .BEHIND. ) ;
#167 = CC_DESIGN_PERSON_AND_ORGANIZATION_ASSIGNMENT ( #36, #142, ( #97 ) ) ;
#168 = LOCAL_TIME ( 15, 33, 13.00000000000000000, #71 ) ;
#169 = CARTESIAN_POINT ( 'NONE',  ( 12.50000000000000000, 1.530808498934191521E-15, 5.000000000000000000 ) ) ;
#170 = ORIENTED_EDGE ( 'NONE', *, *, #147, .F. ) ;
#171 = EDGE_LOOP ( 'NONE', ( #22, #39, #81, #6 ) ) ;
#172 = LOCAL_TIME ( 15, 33, 13.00000000000000000, #166 ) ;
#173 = MECHANICAL_CONTEXT ( 'NONE', #45, 'mechanical' ) ;
#174 = CARTESIAN_POINT ( 'NONE',  ( -12.50000000000000000, 0.000000000000000000, 5.000000000000000000 ) ) ;
#175 = EDGE_CURVE ( 'NONE', #57, #107, #8, .T. ) ;
ENDSEC;
END-ISO-10303-21;
