ISO-10303-21;
HEADER;
FILE_DESCRIPTION (( 'STEP AP214' ),
    '1' );
FILE_NAME ('3357-E0W.STEP',
    '2009-12-21T16:57:37',
    ( ' ' ),
    ( ' ' ),
    'SwSTEP 2.0',
    'SolidWorks 2009',
    '' );
FILE_SCHEMA (( 'AUTOMOTIVE_DESIGN' ));
ENDSEC;

DATA;
#1 =( GEOMETRIC_REPRESENTATION_CONTEXT ( 3 ) GLOBAL_UNCERTAINTY_ASSIGNED_CONTEXT ( ( #29 ) ) GLOBAL_UNIT_ASSIGNED_CONTEXT ( ( #32, #31, #30 ) ) REPRESENTATION_CONTEXT ( 'NONE', 'WORKASPACE' ) );
#2 = COLOUR_RGB ( '',0.9568627450980391500, 0.9490196078431372100, 0.9607843137254902200 ) ;
#3 = DIRECTION ( 'NONE',  ( 1.000000000000000000, 0.0000000000000000000, 0.0000000000000000000 ) ) ;
#4 = DIRECTION ( 'NONE',  ( -0.0000000000000000000, -0.0000000000000000000, 1.000000000000000000 ) ) ;
#5 = CARTESIAN_POINT ( 'NONE',  ( 0.0000000000000000000, -6.274098110942214900E-015, 0.9464456256889803900 ) ) ;
#6 = AXIS2_PLACEMENT_3D ( 'NONE', #5, #4, #3 ) ;
#7 = CIRCLE ( 'NONE', #6, 12.70000000000000500 ) ;
#8 = FACE_OUTER_BOUND ( 'NONE', #82, .T. ) ;
#9 = EDGE_LOOP ( 'NONE', ( #85, #28, #54, #55, #41, #52 ) ) ;
#10 = PRESENTATION_STYLE_ASSIGNMENT (( #11 ) ) ;
#11 = SURFACE_STYLE_USAGE ( .BOTH. , #12 ) ;
#12 = SURFACE_SIDE_STYLE ('',( #13 ) ) ;
#13 = SURFACE_STYLE_FILL_AREA ( #14 ) ;
#14 = FILL_AREA_STYLE ('',( #297 ) ) ;
#15 = EDGE_CURVE ( 'NONE', #20, #57, #7, .T. ) ;
#16 = EDGE_LOOP ( 'NONE', ( #71, #76, #75, #68, #65, #72 ) ) ;
#17 = ADVANCED_FACE ( 'NONE', ( #8 ), #112, .T. ) ;
#18 = ORIENTED_EDGE ( 'NONE', *, *, #88, .T. ) ;
#19 = EDGE_CURVE ( 'NONE', #51, #20, #107, .T. ) ;
#20 = VERTEX_POINT ( 'NONE', #102 ) ;
#21 = ORIENTED_EDGE ( 'NONE', *, *, #93, .T. ) ;
#22 = VERTEX_POINT ( 'NONE', #101 ) ;
#23 = ADVANCED_FACE ( 'NONE', ( #100 ), #283, .T. ) ;
#24 = ORIENTED_EDGE ( 'NONE', *, *, #45, .F. ) ;
#25 = VERTEX_POINT ( 'NONE', #225 ) ;
#26 = EDGE_CURVE ( 'NONE', #84, #27, #180, .T. ) ;
#27 = VERTEX_POINT ( 'NONE', #231 ) ;
#28 = ORIENTED_EDGE ( 'NONE', *, *, #83, .T. ) ;
#29 = UNCERTAINTY_MEASURE_WITH_UNIT (LENGTH_MEASURE( 1.000000000000000100E-005 ), #32, 'distance_accuracy_value', 'NONE');
#30 =( NAMED_UNIT ( * ) SI_UNIT ( $, .STERADIAN. ) SOLID_ANGLE_UNIT ( ) );
#31 =( NAMED_UNIT ( * ) PLANE_ANGLE_UNIT ( ) SI_UNIT ( $, .RADIAN. ) );
#32 =( LENGTH_UNIT ( ) NAMED_UNIT ( * ) SI_UNIT ( .MILLI., .METRE. ) );
#33 = MECHANICAL_DESIGN_GEOMETRIC_PRESENTATION_REPRESENTATION (  '', ( #35 ), #1 ) ;
#34 = PRESENTATION_LAYER_ASSIGNMENT (  '', '', ( #35 ) ) ;
#35 = STYLED_ITEM ( 'NONE', ( #36 ), #23 ) ;
#36 = PRESENTATION_STYLE_ASSIGNMENT (( #37 ) ) ;
#37 = SURFACE_STYLE_USAGE ( .BOTH. , #38 ) ;
#38 = SURFACE_SIDE_STYLE ('',( #39 ) ) ;
#39 = SURFACE_STYLE_FILL_AREA ( #40 ) ;
#40 = FILL_AREA_STYLE ('',( #98 ) ) ;
#41 = ORIENTED_EDGE ( 'NONE', *, *, #49, .F. ) ;
#42 = ORIENTED_EDGE ( 'NONE', *, *, #43, .T. ) ;
#43 = EDGE_CURVE ( 'NONE', #25, #44, #211, .T. ) ;
#44 = VERTEX_POINT ( 'NONE', #189 ) ;
#45 = EDGE_CURVE ( 'NONE', #25, #84, #154, .T. ) ;
#46 = ORIENTED_EDGE ( 'NONE', *, *, #47, .F. ) ;
#47 = EDGE_CURVE ( 'NONE', #27, #44, #282, .T. ) ;
#48 = EDGE_CURVE ( 'NONE', #22, #84, #285, .T. ) ;
#49 = EDGE_CURVE ( 'NONE', #22, #57, #169, .T. ) ;
#50 = ORIENTED_EDGE ( 'NONE', *, *, #19, .T. ) ;
#51 = VERTEX_POINT ( 'NONE', #190 ) ;
#52 = ORIENTED_EDGE ( 'NONE', *, *, #48, .T. ) ;
#53 = EDGE_LOOP ( 'NONE', ( #24, #42, #46, #86 ) ) ;
#54 = ORIENTED_EDGE ( 'NONE', *, *, #91, .F. ) ;
#55 = ORIENTED_EDGE ( 'NONE', *, *, #56, .F. ) ;
#56 = EDGE_CURVE ( 'NONE', #57, #90, #155, .T. ) ;
#57 = VERTEX_POINT ( 'NONE', #174 ) ;
#58 = UNCERTAINTY_MEASURE_WITH_UNIT (LENGTH_MEASURE( 1.000000000000000100E-005 ), #114, 'distance_accuracy_value', 'NONE');
#59 =( NAMED_UNIT ( * ) SI_UNIT ( $, .STERADIAN. ) SOLID_ANGLE_UNIT ( ) );
#60 =( NAMED_UNIT ( * ) PLANE_ANGLE_UNIT ( ) SI_UNIT ( $, .RADIAN. ) );
#61 = MECHANICAL_DESIGN_GEOMETRIC_PRESENTATION_REPRESENTATION (  '', ( #63 ), #315 ) ;
#62 = PRESENTATION_LAYER_ASSIGNMENT (  '', '', ( #63 ) ) ;
#63 = STYLED_ITEM ( 'NONE', ( #10 ), #299 ) ;
#64 = ORIENTED_EDGE ( 'NONE', *, *, #48, .F. ) ;
#65 = ORIENTED_EDGE ( 'NONE', *, *, #15, .F. ) ;
#66 = ORIENTED_EDGE ( 'NONE', *, *, #78, .F. ) ;
#67 = ORIENTED_EDGE ( 'NONE', *, *, #93, .F. ) ;
#68 = ORIENTED_EDGE ( 'NONE', *, *, #49, .T. ) ;
#69 = ADVANCED_FACE ( 'NONE', ( #173 ), #178, .T. ) ;
#70 = ADVANCED_FACE ( 'NONE', ( #143 ), #203, .T. ) ;
#71 = ORIENTED_EDGE ( 'NONE', *, *, #83, .F. ) ;
#72 = ORIENTED_EDGE ( 'NONE', *, *, #19, .F. ) ;
#73 = ORIENTED_EDGE ( 'NONE', *, *, #45, .T. ) ;
#74 = EDGE_LOOP ( 'NONE', ( #77, #73, #64, #66 ) ) ;
#75 = ORIENTED_EDGE ( 'NONE', *, *, #78, .T. ) ;
#76 = ORIENTED_EDGE ( 'NONE', *, *, #47, .T. ) ;
#77 = ORIENTED_EDGE ( 'NONE', *, *, #43, .F. ) ;
#78 = EDGE_CURVE ( 'NONE', #44, #22, #185, .T. ) ;
#79 = CLOSED_SHELL ( 'NONE', ( #97, #92, #23, #69, #70, #17 ) ) ;
#80 = ORIENTED_EDGE ( 'NONE', *, *, #15, .T. ) ;
#81 = ORIENTED_EDGE ( 'NONE', *, *, #56, .T. ) ;
#82 = EDGE_LOOP ( 'NONE', ( #67, #80, #81, #18 ) ) ;
#83 = EDGE_CURVE ( 'NONE', #27, #51, #167, .T. ) ;
#84 = VERTEX_POINT ( 'NONE', #163 ) ;
#85 = ORIENTED_EDGE ( 'NONE', *, *, #26, .T. ) ;
#86 = ORIENTED_EDGE ( 'NONE', *, *, #26, .F. ) ;
#87 = ORIENTED_EDGE ( 'NONE', *, *, #88, .F. ) ;
#88 = EDGE_CURVE ( 'NONE', #90, #94, #162, .T. ) ;
#89 = ORIENTED_EDGE ( 'NONE', *, *, #91, .T. ) ;
#90 = VERTEX_POINT ( 'NONE', #275 ) ;
#91 = EDGE_CURVE ( 'NONE', #90, #51, #273, .T. ) ;
#92 = ADVANCED_FACE ( 'NONE', ( #274 ), #252, .T. ) ;
#93 = EDGE_CURVE ( 'NONE', #20, #94, #251, .T. ) ;
#94 = VERTEX_POINT ( 'NONE', #241 ) ;
#95 = EDGE_LOOP ( 'NONE', ( #50, #21, #87, #89 ) ) ;
#96 = MANIFOLD_SOLID_BREP ( 'NONE', #79 ) ;
#97 = ADVANCED_FACE ( 'NONE', ( #205 ), #223, .T. ) ;
#98 = FILL_AREA_STYLE_COLOUR ( '', #99 ) ;
#99 = COLOUR_RGB ( '',0.9568627450980391500, 0.9490196078431372100, 0.9607843137254902200 ) ;
#100 = FACE_OUTER_BOUND ( 'NONE', #53, .T. ) ;
#101 = CARTESIAN_POINT ( 'NONE',  ( 12.70000000000000600, -6.274098110942214900E-015, -0.9464456256889769400 ) ) ;
#102 = CARTESIAN_POINT ( 'NONE',  ( -1.555250069354419500E-015, -12.70000000000000300, 0.9464456256889803900 ) ) ;
#103 = DIRECTION ( 'NONE',  ( 1.000000000000000000, 0.0000000000000000000, 0.0000000000000000000 ) ) ;
#104 = DIRECTION ( 'NONE',  ( -0.0000000000000000000, -0.0000000000000000000, 1.000000000000000000 ) ) ;
#105 = CARTESIAN_POINT ( 'NONE',  ( 0.0000000000000000000, -6.274098110942214900E-015, 0.9464456256889803900 ) ) ;
#106 = AXIS2_PLACEMENT_3D ( 'NONE', #105, #104, #103 ) ;
#107 = CIRCLE ( 'NONE', #106, 12.70000000000000500 ) ;
#108 = DIRECTION ( 'NONE',  ( 0.0000000000000000000, 1.000000000000000000, 0.0000000000000000000 ) ) ;
#109 = DIRECTION ( 'NONE',  ( -1.000000000000000000, 0.0000000000000000000, 0.0000000000000000000 ) ) ;
#110 = CARTESIAN_POINT ( 'NONE',  ( 0.0000000000000000000, 2.305397599394892400E-015, -20.03999999999999900 ) ) ;
#111 = AXIS2_PLACEMENT_3D ( 'NONE', #110, #109, #108 ) ;
#112 = SPHERICAL_SURFACE ( 'NONE', #111, 24.53000000000000100 ) ;
#113 =( GEOMETRIC_REPRESENTATION_CONTEXT ( 3 ) GLOBAL_UNCERTAINTY_ASSIGNED_CONTEXT ( ( #58 ) ) GLOBAL_UNIT_ASSIGNED_CONTEXT ( ( #114, #60, #59 ) ) REPRESENTATION_CONTEXT ( 'NONE', 'WORKASPACE' ) );
#114 =( LENGTH_UNIT ( ) NAMED_UNIT ( * ) SI_UNIT ( .MILLI., .METRE. ) );
#115 = MECHANICAL_DESIGN_GEOMETRIC_PRESENTATION_REPRESENTATION (  '', ( #117 ), #113 ) ;
#116 = PRESENTATION_LAYER_ASSIGNMENT (  '', '', ( #117 ) ) ;
#117 = STYLED_ITEM ( 'NONE', ( #118 ), #17 ) ;
#118 = PRESENTATION_STYLE_ASSIGNMENT (( #119 ) ) ;
#119 = SURFACE_STYLE_USAGE ( .BOTH. , #120 ) ;
#120 = SURFACE_SIDE_STYLE ('',( #121 ) ) ;
#121 = SURFACE_STYLE_FILL_AREA ( #122 ) ;
#122 = FILL_AREA_STYLE ('',( #123 ) ) ;
#123 = FILL_AREA_STYLE_COLOUR ( '', #2 ) ;
#124 = CARTESIAN_POINT ( 'NONE',  ( 0.0000000000000000000, -2.602986771587698800E-015, 20.03999999999999900 ) ) ;
#125 = UNCERTAINTY_MEASURE_WITH_UNIT (LENGTH_MEASURE( 1.000000000000000100E-005 ), #128, 'distance_accuracy_value', 'NONE');
#126 =( NAMED_UNIT ( * ) SI_UNIT ( $, .STERADIAN. ) SOLID_ANGLE_UNIT ( ) );
#127 =( NAMED_UNIT ( * ) PLANE_ANGLE_UNIT ( ) SI_UNIT ( $, .RADIAN. ) );
#128 =( LENGTH_UNIT ( ) NAMED_UNIT ( * ) SI_UNIT ( .MILLI., .METRE. ) );
#129 = MECHANICAL_DESIGN_GEOMETRIC_PRESENTATION_REPRESENTATION (  '', ( #131 ), #224 ) ;
#130 = PRESENTATION_LAYER_ASSIGNMENT (  '', '', ( #131 ) ) ;
#131 = STYLED_ITEM ( 'NONE', ( #132 ), #97 ) ;
#132 = PRESENTATION_STYLE_ASSIGNMENT (( #133 ) ) ;
#133 = SURFACE_STYLE_USAGE ( .BOTH. , #134 ) ;
#134 = SURFACE_SIDE_STYLE ('',( #135 ) ) ;
#135 = SURFACE_STYLE_FILL_AREA ( #136 ) ;
#136 = FILL_AREA_STYLE ('',( #137 ) ) ;
#137 = FILL_AREA_STYLE_COLOUR ( '', #138 ) ;
#138 = COLOUR_RGB ( '',0.9568627450980391500, 0.9490196078431372100, 0.9607843137254902200 ) ;
#139 = UNCERTAINTY_MEASURE_WITH_UNIT (LENGTH_MEASURE( 1.000000000000000100E-005 ), #175, 'distance_accuracy_value', 'NONE');
#140 = DIRECTION ( 'NONE',  ( -1.000000000000000000, 0.0000000000000000000, 0.0000000000000000000 ) ) ;
#141 = CARTESIAN_POINT ( 'NONE',  ( 0.0000000000000000000, -2.602986771587698800E-015, 20.03999999999999900 ) ) ;
#142 = AXIS2_PLACEMENT_3D ( 'NONE', #141, #140, #267 ) ;
#143 = FACE_OUTER_BOUND ( 'NONE', #16, .T. ) ;
#144 = FILL_AREA_STYLE_COLOUR ( '', #266 ) ;
#145 = PRESENTATION_LAYER_ASSIGNMENT (  '', '', ( #146 ) ) ;
#146 = STYLED_ITEM ( 'NONE', ( #147 ), #69 ) ;
#147 = PRESENTATION_STYLE_ASSIGNMENT (( #148 ) ) ;
#148 = SURFACE_STYLE_USAGE ( .BOTH. , #149 ) ;
#149 = SURFACE_SIDE_STYLE ('',( #150 ) ) ;
#150 = SURFACE_STYLE_FILL_AREA ( #170 ) ;
#151 = AXIS2_PLACEMENT_3D ( 'NONE', #124, #301, #199 ) ;
#152 = CARTESIAN_POINT ( 'NONE',  ( 0.0000000000000000000, -2.602986771587698800E-015, 20.03999999999999900 ) ) ;
#153 = AXIS2_PLACEMENT_3D ( 'NONE', #152, #229, #228 ) ;
#154 = CIRCLE ( 'NONE', #153, 24.53000000000000100 ) ;
#155 = CIRCLE ( 'NONE', #198, 12.70000000000000500 ) ;
#156 = DIRECTION ( 'NONE',  ( -1.224606353822377000E-016, -1.000000000000000000, 0.0000000000000000000 ) ) ;
#157 = DIRECTION ( 'NONE',  ( -1.000000000000000000, 1.224606353822377300E-016, 0.0000000000000000000 ) ) ;
#158 = DIRECTION ( 'NONE',  ( 0.0000000000000000000, 0.0000000000000000000, -1.000000000000000000 ) ) ;
#159 = DIRECTION ( 'NONE',  ( 1.000000000000000000, 0.0000000000000000000, 0.0000000000000000000 ) ) ;
#160 = CARTESIAN_POINT ( 'NONE',  ( 0.0000000000000000000, 2.305397599394892400E-015, -20.03999999999999900 ) ) ;
#161 = AXIS2_PLACEMENT_3D ( 'NONE', #160, #159, #158 ) ;
#162 = CIRCLE ( 'NONE', #161, 24.53000000000000100 ) ;
#163 = CARTESIAN_POINT ( 'NONE',  ( 0.0000000000000000000, 12.69999999999999900, -0.9464456256889769400 ) ) ;
#164 = DIRECTION ( 'NONE',  ( -0.0000000000000000000, -0.0000000000000000000, 1.000000000000000000 ) ) ;
#165 = VECTOR ( 'NONE', #164, 1000.000000000000000 ) ;
#166 = CARTESIAN_POINT ( 'NONE',  ( -12.70000000000000600, -4.718848041587794900E-015, 6.491000388932064000 ) ) ;
#167 = LINE ( 'NONE', #166, #165 ) ;
#168 = CARTESIAN_POINT ( 'NONE',  ( 12.70000000000000600, -6.274098110942214900E-015, 6.491000388932064000 ) ) ;
#169 = LINE ( 'NONE', #168, #192 ) ;
#170 = FILL_AREA_STYLE ('',( #171 ) ) ;
#171 = FILL_AREA_STYLE_COLOUR ( '', #172 ) ;
#172 = COLOUR_RGB ( '',0.9568627450980391500, 0.9490196078431372100, 0.9607843137254902200 ) ;
#173 = FACE_OUTER_BOUND ( 'NONE', #74, .T. ) ;
#174 = CARTESIAN_POINT ( 'NONE',  ( 12.70000000000000500, -6.274098110942214900E-015, 0.9464456256889803900 ) ) ;
#175 =( LENGTH_UNIT ( ) NAMED_UNIT ( * ) SI_UNIT ( .MILLI., .METRE. ) );
#176 = MECHANICAL_DESIGN_GEOMETRIC_PRESENTATION_REPRESENTATION (  '', ( #260 ), #204 ) ;
#177 = DIRECTION ( 'NONE',  ( 1.000000000000000000, 0.0000000000000000000, 0.0000000000000000000 ) ) ;
#178 = SPHERICAL_SURFACE ( 'NONE', #142, 24.53000000000000100 ) ;
#179 =( GEOMETRIC_REPRESENTATION_CONTEXT ( 3 ) GLOBAL_UNCERTAINTY_ASSIGNED_CONTEXT ( ( #193 ) ) GLOBAL_UNIT_ASSIGNED_CONTEXT ( ( #200, #278, #194 ) ) REPRESENTATION_CONTEXT ( 'NONE', 'WORKASPACE' ) );
#180 = CIRCLE ( 'NONE', #187, 12.70000000000000600 ) ;
#181 = DIRECTION ( 'NONE',  ( 1.000000000000000000, 0.0000000000000000000, 0.0000000000000000000 ) ) ;
#182 = DIRECTION ( 'NONE',  ( -0.0000000000000000000, -0.0000000000000000000, 1.000000000000000000 ) ) ;
#183 = CARTESIAN_POINT ( 'NONE',  ( 0.0000000000000000000, -6.274098110942214900E-015, -0.9464456256889769400 ) ) ;
#184 = AXIS2_PLACEMENT_3D ( 'NONE', #183, #182, #181 ) ;
#185 = CIRCLE ( 'NONE', #184, 12.70000000000000600 ) ;
#186 = DIRECTION ( 'NONE',  ( 1.000000000000000000, 0.0000000000000000000, 0.0000000000000000000 ) ) ;
#187 = AXIS2_PLACEMENT_3D ( 'NONE', #258, #257, #256 ) ;
#188 = AXIS2_PLACEMENT_3D ( 'NONE', #230, #157, #156 ) ;
#189 = CARTESIAN_POINT ( 'NONE',  ( -1.555250069354420100E-015, -12.70000000000001000, -0.9464456256889769400 ) ) ;
#190 = CARTESIAN_POINT ( 'NONE',  ( -12.70000000000000500, -4.718848041587794900E-015, 0.9464456256889803900 ) ) ;
#191 = DIRECTION ( 'NONE',  ( -0.0000000000000000000, -0.0000000000000000000, 1.000000000000000000 ) ) ;
#192 = VECTOR ( 'NONE', #191, 1000.000000000000000 ) ;
#193 = UNCERTAINTY_MEASURE_WITH_UNIT (LENGTH_MEASURE( 1.000000000000000100E-005 ), #200, 'distance_accuracy_value', 'NONE');
#194 =( NAMED_UNIT ( * ) SI_UNIT ( $, .STERADIAN. ) SOLID_ANGLE_UNIT ( ) );
#195 = DIRECTION ( 'NONE',  ( 1.000000000000000000, 0.0000000000000000000, 0.0000000000000000000 ) ) ;
#196 = DIRECTION ( 'NONE',  ( -0.0000000000000000000, -0.0000000000000000000, 1.000000000000000000 ) ) ;
#197 = CARTESIAN_POINT ( 'NONE',  ( 0.0000000000000000000, -6.274098110942214900E-015, 0.9464456256889803900 ) ) ;
#198 = AXIS2_PLACEMENT_3D ( 'NONE', #197, #196, #195 ) ;
#199 = DIRECTION ( 'NONE',  ( 0.0000000000000000000, 1.000000000000000000, 0.0000000000000000000 ) ) ;
#200 =( LENGTH_UNIT ( ) NAMED_UNIT ( * ) SI_UNIT ( .MILLI., .METRE. ) );
#201 = MECHANICAL_DESIGN_GEOMETRIC_PRESENTATION_REPRESENTATION (  '', ( #146 ), #179 ) ;
#202 = AXIS2_PLACEMENT_3D ( 'NONE', #277, #276, #186 ) ;
#203 = CYLINDRICAL_SURFACE ( 'NONE', #202, 12.70000000000000600 ) ;
#204 =( GEOMETRIC_REPRESENTATION_CONTEXT ( 3 ) GLOBAL_UNCERTAINTY_ASSIGNED_CONTEXT ( ( #139 ) ) GLOBAL_UNIT_ASSIGNED_CONTEXT ( ( #175, #227, #226 ) ) REPRESENTATION_CONTEXT ( 'NONE', 'WORKASPACE' ) );
#205 = FACE_OUTER_BOUND ( 'NONE', #95, .T. ) ;
#206 =( GEOMETRIC_REPRESENTATION_CONTEXT ( 3 ) GLOBAL_UNCERTAINTY_ASSIGNED_CONTEXT ( ( #207 ) ) GLOBAL_UNIT_ASSIGNED_CONTEXT ( ( #210, #209, #208 ) ) REPRESENTATION_CONTEXT ( 'NONE', 'WORKASPACE' ) );
#207 = UNCERTAINTY_MEASURE_WITH_UNIT (LENGTH_MEASURE( 1.000000000000000100E-005 ), #210, 'distance_accuracy_value', 'NONE');
#208 =( NAMED_UNIT ( * ) SI_UNIT ( $, .STERADIAN. ) SOLID_ANGLE_UNIT ( ) );
#209 =( NAMED_UNIT ( * ) PLANE_ANGLE_UNIT ( ) SI_UNIT ( $, .RADIAN. ) );
#210 =( LENGTH_UNIT ( ) NAMED_UNIT ( * ) SI_UNIT ( .MILLI., .METRE. ) );
#211 = CIRCLE ( 'NONE', #188, 24.53000000000000100 ) ;
#212 = DIRECTION ( 'NONE',  ( 1.000000000000000000, 0.0000000000000000000, 0.0000000000000000000 ) ) ;
#213 = DIRECTION ( 'NONE',  ( -0.0000000000000000000, -0.0000000000000000000, 1.000000000000000000 ) ) ;
#214 = CARTESIAN_POINT ( 'NONE',  ( 0.0000000000000000000, -6.274098110942214900E-015, -0.9464456256889769400 ) ) ;
#215 = UNCERTAINTY_MEASURE_WITH_UNIT (LENGTH_MEASURE( 1.000000000000000100E-005 ), #218, 'distance_accuracy_value', 'NONE');
#216 =( NAMED_UNIT ( * ) SI_UNIT ( $, .STERADIAN. ) SOLID_ANGLE_UNIT ( ) );
#217 =( NAMED_UNIT ( * ) PLANE_ANGLE_UNIT ( ) SI_UNIT ( $, .RADIAN. ) );
#218 =( LENGTH_UNIT ( ) NAMED_UNIT ( * ) SI_UNIT ( .MILLI., .METRE. ) );
#219 = DIRECTION ( 'NONE',  ( 0.0000000000000000000, 1.000000000000000000, 0.0000000000000000000 ) ) ;
#220 = DIRECTION ( 'NONE',  ( -1.000000000000000000, 0.0000000000000000000, 0.0000000000000000000 ) ) ;
#221 = CARTESIAN_POINT ( 'NONE',  ( 0.0000000000000000000, 2.305397599394892400E-015, -20.03999999999999900 ) ) ;
#222 = AXIS2_PLACEMENT_3D ( 'NONE', #221, #220, #219 ) ;
#223 = SPHERICAL_SURFACE ( 'NONE', #222, 24.53000000000000100 ) ;
#224 =( GEOMETRIC_REPRESENTATION_CONTEXT ( 3 ) GLOBAL_UNCERTAINTY_ASSIGNED_CONTEXT ( ( #125 ) ) GLOBAL_UNIT_ASSIGNED_CONTEXT ( ( #128, #127, #126 ) ) REPRESENTATION_CONTEXT ( 'NONE', 'WORKASPACE' ) );
#225 = CARTESIAN_POINT ( 'NONE',  ( 0.0000000000000000000, -1.101007078624553200E-015, -4.490000000000001100 ) ) ;
#226 =( NAMED_UNIT ( * ) SI_UNIT ( $, .STERADIAN. ) SOLID_ANGLE_UNIT ( ) );
#227 =( NAMED_UNIT ( * ) PLANE_ANGLE_UNIT ( ) SI_UNIT ( $, .RADIAN. ) );
#228 = DIRECTION ( 'NONE',  ( 0.0000000000000000000, 0.0000000000000000000, -1.000000000000000000 ) ) ;
#229 = DIRECTION ( 'NONE',  ( 1.000000000000000000, 0.0000000000000000000, 0.0000000000000000000 ) ) ;
#230 = CARTESIAN_POINT ( 'NONE',  ( 0.0000000000000000000, -2.602986771587698800E-015, 20.03999999999999900 ) ) ;
#231 = CARTESIAN_POINT ( 'NONE',  ( -12.70000000000000600, -4.718848041587794900E-015, -0.9464456256889769400 ) ) ;
#232 = MECHANICAL_DESIGN_GEOMETRIC_PRESENTATION_REPRESENTATION (  '', ( #234 ), #206 ) ;
#233 = PRESENTATION_LAYER_ASSIGNMENT (  '', '', ( #234 ) ) ;
#234 = STYLED_ITEM ( 'NONE', ( #235 ), #96 ) ;
#235 = PRESENTATION_STYLE_ASSIGNMENT (( #236 ) ) ;
#236 = SURFACE_STYLE_USAGE ( .BOTH. , #237 ) ;
#237 = SURFACE_SIDE_STYLE ('',( #238 ) ) ;
#238 = SURFACE_STYLE_FILL_AREA ( #239 ) ;
#239 = FILL_AREA_STYLE ('',( #246 ) ) ;
#240 = COLOUR_RGB ( '',0.7960784313725489700, 0.8235294117647058400, 0.9372549019607843100 ) ;
#241 = CARTESIAN_POINT ( 'NONE',  ( 0.0000000000000000000, 3.807377292358038200E-015, 4.490000000000001100 ) ) ;
#242 = DIRECTION ( 'NONE',  ( -1.224606353822377000E-016, -1.000000000000000000, 0.0000000000000000000 ) ) ;
#243 = DIRECTION ( 'NONE',  ( -1.000000000000000000, 1.224606353822377300E-016, 0.0000000000000000000 ) ) ;
#244 = CARTESIAN_POINT ( 'NONE',  ( 0.0000000000000000000, 2.305397599394892400E-015, -20.03999999999999900 ) ) ;
#245 = AXIS2_PLACEMENT_3D ( 'NONE', #244, #243, #242 ) ;
#246 = FILL_AREA_STYLE_COLOUR ( '', #240 ) ;
#247 = DIRECTION ( 'NONE',  ( 1.000000000000000000, 0.0000000000000000000, 0.0000000000000000000 ) ) ;
#248 = DIRECTION ( 'NONE',  ( -0.0000000000000000000, -0.0000000000000000000, 1.000000000000000000 ) ) ;
#249 = CARTESIAN_POINT ( 'NONE',  ( 0.0000000000000000000, -6.274098110942214900E-015, 6.491000388932064000 ) ) ;
#250 = AXIS2_PLACEMENT_3D ( 'NONE', #249, #248, #247 ) ;
#251 = CIRCLE ( 'NONE', #245, 24.53000000000000100 ) ;
#252 = CYLINDRICAL_SURFACE ( 'NONE', #250, 12.70000000000000600 ) ;
#253 =( GEOMETRIC_REPRESENTATION_CONTEXT ( 3 ) GLOBAL_UNCERTAINTY_ASSIGNED_CONTEXT ( ( #254 ) ) GLOBAL_UNIT_ASSIGNED_CONTEXT ( ( #287, #286, #255 ) ) REPRESENTATION_CONTEXT ( 'NONE', 'WORKASPACE' ) );
#254 = UNCERTAINTY_MEASURE_WITH_UNIT (LENGTH_MEASURE( 1.000000000000000100E-005 ), #287, 'distance_accuracy_value', 'NONE');
#255 =( NAMED_UNIT ( * ) SI_UNIT ( $, .STERADIAN. ) SOLID_ANGLE_UNIT ( ) );
#256 = DIRECTION ( 'NONE',  ( 1.000000000000000000, 0.0000000000000000000, 0.0000000000000000000 ) ) ;
#257 = DIRECTION ( 'NONE',  ( -0.0000000000000000000, -0.0000000000000000000, 1.000000000000000000 ) ) ;
#258 = CARTESIAN_POINT ( 'NONE',  ( 0.0000000000000000000, -6.274098110942214900E-015, -0.9464456256889769400 ) ) ;
#259 = PRESENTATION_LAYER_ASSIGNMENT (  '', '', ( #260 ) ) ;
#260 = STYLED_ITEM ( 'NONE', ( #261 ), #70 ) ;
#261 = PRESENTATION_STYLE_ASSIGNMENT (( #262 ) ) ;
#262 = SURFACE_STYLE_USAGE ( .BOTH. , #263 ) ;
#263 = SURFACE_SIDE_STYLE ('',( #264 ) ) ;
#264 = SURFACE_STYLE_FILL_AREA ( #265 ) ;
#265 = FILL_AREA_STYLE ('',( #144 ) ) ;
#266 = COLOUR_RGB ( '',0.9568627450980391500, 0.9490196078431372100, 0.9607843137254902200 ) ;
#267 = DIRECTION ( 'NONE',  ( 0.0000000000000000000, 1.000000000000000000, 0.0000000000000000000 ) ) ;
#268 = FILL_AREA_STYLE_COLOUR ( '', #296 ) ;
#269 = DIRECTION ( 'NONE',  ( 1.000000000000000000, 0.0000000000000000000, 0.0000000000000000000 ) ) ;
#270 = DIRECTION ( 'NONE',  ( -0.0000000000000000000, -0.0000000000000000000, 1.000000000000000000 ) ) ;
#271 = CARTESIAN_POINT ( 'NONE',  ( 0.0000000000000000000, -6.274098110942214900E-015, 0.9464456256889803900 ) ) ;
#272 = AXIS2_PLACEMENT_3D ( 'NONE', #271, #270, #269 ) ;
#273 = CIRCLE ( 'NONE', #272, 12.70000000000000500 ) ;
#274 = FACE_OUTER_BOUND ( 'NONE', #9, .T. ) ;
#275 = CARTESIAN_POINT ( 'NONE',  ( 0.0000000000000000000, 12.69999999999999600, 0.9464456256889803900 ) ) ;
#276 = DIRECTION ( 'NONE',  ( -0.0000000000000000000, -0.0000000000000000000, 1.000000000000000000 ) ) ;
#277 = CARTESIAN_POINT ( 'NONE',  ( 0.0000000000000000000, -6.274098110942214900E-015, 6.491000388932064000 ) ) ;
#278 =( NAMED_UNIT ( * ) PLANE_ANGLE_UNIT ( ) SI_UNIT ( $, .RADIAN. ) );
#279 = DIRECTION ( 'NONE',  ( -0.0000000000000000000, -0.0000000000000000000, 1.000000000000000000 ) ) ;
#280 = CARTESIAN_POINT ( 'NONE',  ( 0.0000000000000000000, -6.274098110942214900E-015, -0.9464456256889769400 ) ) ;
#281 = AXIS2_PLACEMENT_3D ( 'NONE', #280, #279, #177 ) ;
#282 = CIRCLE ( 'NONE', #281, 12.70000000000000600 ) ;
#283 = SPHERICAL_SURFACE ( 'NONE', #151, 24.53000000000000100 ) ;
#284 = AXIS2_PLACEMENT_3D ( 'NONE', #214, #213, #212 ) ;
#285 = CIRCLE ( 'NONE', #284, 12.70000000000000600 ) ;
#286 =( NAMED_UNIT ( * ) PLANE_ANGLE_UNIT ( ) SI_UNIT ( $, .RADIAN. ) );
#287 =( LENGTH_UNIT ( ) NAMED_UNIT ( * ) SI_UNIT ( .MILLI., .METRE. ) );
#288 = MECHANICAL_DESIGN_GEOMETRIC_PRESENTATION_REPRESENTATION (  '', ( #290 ), #253 ) ;
#289 = PRESENTATION_LAYER_ASSIGNMENT (  '', '', ( #290 ) ) ;
#290 = STYLED_ITEM ( 'NONE', ( #291 ), #92 ) ;
#291 = PRESENTATION_STYLE_ASSIGNMENT (( #292 ) ) ;
#292 = SURFACE_STYLE_USAGE ( .BOTH. , #293 ) ;
#293 = SURFACE_SIDE_STYLE ('',( #294 ) ) ;
#294 = SURFACE_STYLE_FILL_AREA ( #295 ) ;
#295 = FILL_AREA_STYLE ('',( #268 ) ) ;
#296 = COLOUR_RGB ( '',0.9568627450980391500, 0.9490196078431372100, 0.9607843137254902200 ) ;
#297 = FILL_AREA_STYLE_COLOUR ( '', #298 ) ;
#298 = COLOUR_RGB ( '',0.7960784313725489700, 0.8235294117647058400, 0.9372549019607843100 ) ;
#299 = ADVANCED_BREP_SHAPE_REPRESENTATION ( '3357-E0W', ( #96, #319 ), #300 ) ;
#300 =( GEOMETRIC_REPRESENTATION_CONTEXT ( 3 ) GLOBAL_UNCERTAINTY_ASSIGNED_CONTEXT ( ( #215 ) ) GLOBAL_UNIT_ASSIGNED_CONTEXT ( ( #218, #217, #216 ) ) REPRESENTATION_CONTEXT ( 'NONE', 'WORKASPACE' ) );
#301 = DIRECTION ( 'NONE',  ( -1.000000000000000000, 0.0000000000000000000, 0.0000000000000000000 ) ) ;
#302 = PRODUCT_DEFINITION_SHAPE ( 'NONE', 'NONE',  #305 ) ;
#303 = PRODUCT_RELATED_PRODUCT_CATEGORY ( 'part', '', ( #320 ) ) ;
#304 = PRODUCT_DEFINITION_FORMATION_WITH_SPECIFIED_SOURCE ( 'ANY', '', #320, .NOT_KNOWN. ) ;
#305 = PRODUCT_DEFINITION ( 'UNKNOWN', '', #304, #306 ) ;
#306 = PRODUCT_DEFINITION_CONTEXT ( 'detailed design', #308, 'design' ) ;
#307 = APPLICATION_PROTOCOL_DEFINITION ( 'draft international standard', 'automotive_design', 1998, #308 ) ;
#308 = APPLICATION_CONTEXT ( 'automotive_design' ) ;
#309 =( LENGTH_UNIT ( ) NAMED_UNIT ( * ) SI_UNIT ( .MILLI., .METRE. ) );
#310 = APPLICATION_CONTEXT ( 'automotive_design' ) ;
#311 = DIRECTION ( 'NONE',  ( 0.0000000000000000000, 0.0000000000000000000, 1.000000000000000000 ) ) ;
#312 = CARTESIAN_POINT ( 'NONE',  ( 0.0000000000000000000, 0.0000000000000000000, 0.0000000000000000000 ) ) ;
#313 =( NAMED_UNIT ( * ) SI_UNIT ( $, .STERADIAN. ) SOLID_ANGLE_UNIT ( ) );
#314 =( NAMED_UNIT ( * ) PLANE_ANGLE_UNIT ( ) SI_UNIT ( $, .RADIAN. ) );
#315 =( GEOMETRIC_REPRESENTATION_CONTEXT ( 3 ) GLOBAL_UNCERTAINTY_ASSIGNED_CONTEXT ( ( #316 ) ) GLOBAL_UNIT_ASSIGNED_CONTEXT ( ( #309, #314, #313 ) ) REPRESENTATION_CONTEXT ( 'NONE', 'WORKASPACE' ) );
#316 = UNCERTAINTY_MEASURE_WITH_UNIT (LENGTH_MEASURE( 1.000000000000000100E-005 ), #309, 'distance_accuracy_value', 'NONE');
#317 = SHAPE_DEFINITION_REPRESENTATION ( #302, #299 ) ;
#318 = DIRECTION ( 'NONE',  ( 1.000000000000000000, 0.0000000000000000000, 0.0000000000000000000 ) ) ;
#319 = AXIS2_PLACEMENT_3D ( 'NONE', #312, #311, #318 ) ;
#320 = PRODUCT ( '3357-E0W', '3357-E0W', '', ( #321 ) ) ;
#321 = PRODUCT_CONTEXT ( 'NONE', #310, 'mechanical' ) ;
#322 = APPLICATION_PROTOCOL_DEFINITION ( 'draft international standard', 'automotive_design', 1998, #310 ) ;
ENDSEC;
END-ISO-10303-21;
