ISO-10303-21;
HEADER;
FILE_DESCRIPTION (( 'STEP AP203' ),
    '1' );
FILE_NAME ('Web Model 45076.STEP',
    '2017-01-31T15:17:19',
    ( '' ),
    ( '' ),
    'SwSTEP 2.0',
    'SolidWorks 2016',
    '' );
FILE_SCHEMA (( 'CONFIG_CONTROL_DESIGN' ));
ENDSEC;

DATA;
#1 = ORIENTED_EDGE ( 'NONE', *, *, #46, .F. ) ;
#2 = VECTOR ( 'NONE', #104, 1000.000000000000000 ) ;
#3 = APPROVAL_PERSON_ORGANIZATION ( #110, #81, #106 ) ;
#4 = ADVANCED_FACE ( 'NONE', ( #8 ), #116, .T. ) ;
#5 =( NAMED_UNIT ( * ) PLANE_ANGLE_UNIT ( ) SI_UNIT ( $, .RADIAN. ) );
#6 = DIRECTION ( 'NONE',  ( 0.0000000000000000000, 0.0000000000000000000, 1.000000000000000000 ) ) ;
#7 = DATE_AND_TIME ( #130, #30 ) ;
#8 = FACE_OUTER_BOUND ( 'NONE', #66, .T. ) ;
#9 = PRODUCT ( 'Web Model 45076', 'Web Model 45076', '', ( #143 ) ) ;
#10 = CARTESIAN_POINT ( 'NONE',  ( -12.50000000000000000, 1.530808498934191500E-015, -4.000000000000000000 ) ) ;
#11 = CARTESIAN_POINT ( 'NONE',  ( 0.0000000000000000000, 0.0000000000000000000, -4.000000000000000000 ) ) ;
#12 = COORDINATED_UNIVERSAL_TIME_OFFSET ( 5, 0, .BEHIND. ) ;
#13 = LOCAL_TIME ( 10, 17, 19.00000000000000000, #31 ) ;
#14 = VECTOR ( 'NONE', #121, 1000.000000000000000 ) ;
#15 = COORDINATED_UNIVERSAL_TIME_OFFSET ( 5, 0, .BEHIND. ) ;
#16 = DATE_AND_TIME ( #166, #157 ) ;
#17 = ADVANCED_FACE ( 'NONE', ( #149 ), #144, .T. ) ;
#18 = APPROVAL_STATUS ( 'not_yet_approved' ) ;
#19 = LINE ( 'NONE', #105, #2 ) ;
#20 = CARTESIAN_POINT ( 'NONE',  ( 0.0000000000000000000, 0.0000000000000000000, 0.0000000000000000000 ) ) ;
#21 = CC_DESIGN_APPROVAL ( #135, ( #172 ) ) ;
#22 = APPROVAL_DATE_TIME ( #147, #135 ) ;
#23 = CLOSED_SHELL ( 'NONE', ( #17, #82, #153, #4 ) ) ;
#24 =( LENGTH_UNIT ( ) NAMED_UNIT ( * ) SI_UNIT ( .MILLI., .METRE. ) );
#25 = PERSON ( 'UNSPECIFIED', 'UNSPECIFIED', 'UNSPECIFIED', ('UNSPECIFIED'), ('UNSPECIFIED'), ('UNSPECIFIED') ) ;
#26 = CARTESIAN_POINT ( 'NONE',  ( 0.0000000000000000000, 0.0000000000000000000, -4.000000000000000000 ) ) ;
#27 = CIRCLE ( 'NONE', #109, 12.50000000000000000 ) ;
#28 = APPROVAL_STATUS ( 'not_yet_approved' ) ;
#29 = ORGANIZATION ( 'UNSPECIFIED', 'UNSPECIFIED', '' ) ;
#30 = LOCAL_TIME ( 10, 17, 19.00000000000000000, #47 ) ;
#31 = COORDINATED_UNIVERSAL_TIME_OFFSET ( 5, 0, .BEHIND. ) ;
#32 = CC_DESIGN_DATE_AND_TIME_ASSIGNMENT ( #16, #127, ( #172 ) ) ;
#33 = MANIFOLD_SOLID_BREP ( 'Extrude1', #23 ) ;
#34 =( NAMED_UNIT ( * ) SI_UNIT ( $, .STERADIAN. ) SOLID_ANGLE_UNIT ( ) );
#35 = CC_DESIGN_APPROVAL ( #81, ( #168 ) ) ;
#36 = APPROVAL_ROLE ( '' ) ;
#37 = UNCERTAINTY_MEASURE_WITH_UNIT (LENGTH_MEASURE( 1.000000000000000100E-005 ), #24, 'distance_accuracy_value', 'NONE');
#38 = DIRECTION ( 'NONE',  ( 1.000000000000000000, 0.0000000000000000000, 0.0000000000000000000 ) ) ;
#39 = CC_DESIGN_PERSON_AND_ORGANIZATION_ASSIGNMENT ( #138, #139, ( #45 ) ) ;
#40 = ORIENTED_EDGE ( 'NONE', *, *, #84, .F. ) ;
#41 = CALENDAR_DATE ( 2017, 31, 1 ) ;
#42 = APPROVAL_STATUS ( 'not_yet_approved' ) ;
#43 = VERTEX_POINT ( 'NONE', #91 ) ;
#44 = DIRECTION ( 'NONE',  ( 0.0000000000000000000, 0.0000000000000000000, 1.000000000000000000 ) ) ;
#45 = PRODUCT_DEFINITION_FORMATION_WITH_SPECIFIED_SOURCE ( 'ANY', '', #9, .NOT_KNOWN. ) ;
#46 = EDGE_CURVE ( 'NONE', #125, #63, #163, .T. ) ;
#47 = COORDINATED_UNIVERSAL_TIME_OFFSET ( 5, 0, .BEHIND. ) ;
#48 = DIRECTION ( 'NONE',  ( 1.000000000000000000, 0.0000000000000000000, 0.0000000000000000000 ) ) ;
#49 = DIRECTION ( 'NONE',  ( 1.000000000000000000, 0.0000000000000000000, -0.0000000000000000000 ) ) ;
#50 = DIRECTION ( 'NONE',  ( 1.000000000000000000, 0.0000000000000000000, 0.0000000000000000000 ) ) ;
#51 = CC_DESIGN_PERSON_AND_ORGANIZATION_ASSIGNMENT ( #93, #59, ( #45 ) ) ;
#52 = ORIENTED_EDGE ( 'NONE', *, *, #46, .T. ) ;
#53 = PRODUCT_RELATED_PRODUCT_CATEGORY ( 'detail', '', ( #9 ) ) ;
#54 = CALENDAR_DATE ( 2017, 31, 1 ) ;
#55 = LINE ( 'NONE', #131, #14 ) ;
#56 = PERSON_AND_ORGANIZATION ( #25, #29 ) ;
#57 = CARTESIAN_POINT ( 'NONE',  ( 0.0000000000000000000, 0.0000000000000000000, -4.000000000000000000 ) ) ;
#58 = CYLINDRICAL_SURFACE ( 'NONE', #148, 12.50000000000000000 ) ;
#59 = PERSON_AND_ORGANIZATION_ROLE ( 'design_supplier' ) ;
#60 = DIRECTION ( 'NONE',  ( 0.0000000000000000000, 0.0000000000000000000, 1.000000000000000000 ) ) ;
#61 = APPROVAL_ROLE ( '' ) ;
#62 = ORIENTED_EDGE ( 'NONE', *, *, #165, .T. ) ;
#63 = VERTEX_POINT ( 'NONE', #10 ) ;
#64 = DIRECTION ( 'NONE',  ( 0.0000000000000000000, 0.0000000000000000000, 1.000000000000000000 ) ) ;
#65 = LOCAL_TIME ( 10, 17, 19.00000000000000000, #136 ) ;
#66 = EDGE_LOOP ( 'NONE', ( #119, #94 ) ) ;
#67 = DATE_AND_TIME ( #77, #114 ) ;
#68 = APPROVAL ( #42, 'UNSPECIFIED' ) ;
#69 = EDGE_LOOP ( 'NONE', ( #1, #72 ) ) ;
#70 = CARTESIAN_POINT ( 'NONE',  ( 0.0000000000000000000, 0.0000000000000000000, 0.0000000000000000000 ) ) ;
#71 = APPROVAL_PERSON_ORGANIZATION ( #76, #135, #61 ) ;
#72 = ORIENTED_EDGE ( 'NONE', *, *, #165, .F. ) ;
#73 = CC_DESIGN_APPROVAL ( #68, ( #45 ) ) ;
#74 = DIRECTION ( 'NONE',  ( 0.0000000000000000000, 0.0000000000000000000, 1.000000000000000000 ) ) ;
#75 = CARTESIAN_POINT ( 'NONE',  ( 12.50000000000000000, 0.0000000000000000000, -4.000000000000000000 ) ) ;
#76 = PERSON_AND_ORGANIZATION ( #25, #29 ) ;
#77 = CALENDAR_DATE ( 2017, 31, 1 ) ;
#78 = CIRCLE ( 'NONE', #85, 12.50000000000000000 ) ;
#79 = SHAPE_DEFINITION_REPRESENTATION ( #92, #151 ) ;
#80 = ORIENTED_EDGE ( 'NONE', *, *, #169, .F. ) ;
#81 = APPROVAL ( #28, 'UNSPECIFIED' ) ;
#82 = ADVANCED_FACE ( 'NONE', ( #101 ), #58, .T. ) ;
#83 = APPROVAL_PERSON_ORGANIZATION ( #122, #68, #36 ) ;
#84 = EDGE_CURVE ( 'NONE', #125, #43, #19, .T. ) ;
#85 = AXIS2_PLACEMENT_3D ( 'NONE', #57, #167, #87 ) ;
#86 = FACE_OUTER_BOUND ( 'NONE', #69, .T. ) ;
#87 = DIRECTION ( 'NONE',  ( 1.000000000000000000, 0.0000000000000000000, 0.0000000000000000000 ) ) ;
#88 = APPLICATION_PROTOCOL_DEFINITION ( 'international standard', 'config_control_design', 1994, #111 ) ;
#89 = APPLICATION_CONTEXT ( 'configuration controlled 3d designs of mechanical parts and assemblies' ) ;
#90 = PLANE ( 'NONE',  #162 ) ;
#91 = CARTESIAN_POINT ( 'NONE',  ( 12.50000000000000000, 0.0000000000000000000, 0.0000000000000000000 ) ) ;
#92 = PRODUCT_DEFINITION_SHAPE ( 'NONE', 'NONE',  #172 ) ;
#93 = PERSON_AND_ORGANIZATION ( #25, #29 ) ;
#94 = ORIENTED_EDGE ( 'NONE', *, *, #129, .T. ) ;
#95 = AXIS2_PLACEMENT_3D ( 'NONE', #70, #60, #48 ) ;
#96 = PERSON_AND_ORGANIZATION_ROLE ( 'design_owner' ) ;
#97 = ORIENTED_EDGE ( 'NONE', *, *, #113, .T. ) ;
#98 = AXIS2_PLACEMENT_3D ( 'NONE', #146, #120, #49 ) ;
#99 = PERSON_AND_ORGANIZATION_ROLE ( 'creator' ) ;
#100 = APPROVAL_DATE_TIME ( #7, #68 ) ;
#101 = FACE_OUTER_BOUND ( 'NONE', #160, .T. ) ;
#102 = CARTESIAN_POINT ( 'NONE',  ( 0.0000000000000000000, 0.0000000000000000000, -4.000000000000000000 ) ) ;
#103 = CC_DESIGN_DATE_AND_TIME_ASSIGNMENT ( #67, #175, ( #168 ) ) ;
#104 = DIRECTION ( 'NONE',  ( 0.0000000000000000000, 0.0000000000000000000, 1.000000000000000000 ) ) ;
#105 = CARTESIAN_POINT ( 'NONE',  ( 12.50000000000000000, 0.0000000000000000000, -4.000000000000000000 ) ) ;
#106 = APPROVAL_ROLE ( '' ) ;
#107 = CIRCLE ( 'NONE', #134, 12.50000000000000000 ) ;
#108 =( GEOMETRIC_REPRESENTATION_CONTEXT ( 3 ) GLOBAL_UNCERTAINTY_ASSIGNED_CONTEXT ( ( #37 ) ) GLOBAL_UNIT_ASSIGNED_CONTEXT ( ( #24, #5, #34 ) ) REPRESENTATION_CONTEXT ( 'NONE', 'WORKASPACE' ) );
#109 = AXIS2_PLACEMENT_3D ( 'NONE', #118, #74, #50 ) ;
#110 = PERSON_AND_ORGANIZATION ( #25, #29 ) ;
#111 = APPLICATION_CONTEXT ( 'configuration controlled 3d designs of mechanical parts and assemblies' ) ;
#112 = CC_DESIGN_SECURITY_CLASSIFICATION ( #168, ( #45 ) ) ;
#113 = EDGE_CURVE ( 'NONE', #63, #137, #55, .T. ) ;
#114 = LOCAL_TIME ( 10, 17, 19.00000000000000000, #12 ) ;
#115 = ORIENTED_EDGE ( 'NONE', *, *, #113, .F. ) ;
#116 = PLANE ( 'NONE',  #98 ) ;
#117 = APPROVAL_DATE_TIME ( #155, #81 ) ;
#118 = CARTESIAN_POINT ( 'NONE',  ( 0.0000000000000000000, 0.0000000000000000000, 0.0000000000000000000 ) ) ;
#119 = ORIENTED_EDGE ( 'NONE', *, *, #169, .T. ) ;
#120 = DIRECTION ( 'NONE',  ( 0.0000000000000000000, 0.0000000000000000000, 1.000000000000000000 ) ) ;
#121 = DIRECTION ( 'NONE',  ( 0.0000000000000000000, 0.0000000000000000000, 1.000000000000000000 ) ) ;
#122 = PERSON_AND_ORGANIZATION ( #25, #29 ) ;
#123 = AXIS2_PLACEMENT_3D ( 'NONE', #102, #132, #174 ) ;
#124 = PERSON_AND_ORGANIZATION ( #25, #29 ) ;
#125 = VERTEX_POINT ( 'NONE', #75 ) ;
#126 = CC_DESIGN_PERSON_AND_ORGANIZATION_ASSIGNMENT ( #170, #96, ( #9 ) ) ;
#127 = DATE_TIME_ROLE ( 'creation_date' ) ;
#128 = DIRECTION ( 'NONE',  ( 1.000000000000000000, 0.0000000000000000000, 0.0000000000000000000 ) ) ;
#129 = EDGE_CURVE ( 'NONE', #137, #43, #27, .T. ) ;
#130 = CALENDAR_DATE ( 2017, 31, 1 ) ;
#131 = CARTESIAN_POINT ( 'NONE',  ( -12.50000000000000000, 1.530808498934191500E-015, -4.000000000000000000 ) ) ;
#132 = DIRECTION ( 'NONE',  ( 0.0000000000000000000, 0.0000000000000000000, 1.000000000000000000 ) ) ;
#133 = AXIS2_PLACEMENT_3D ( 'NONE', #145, #171, #38 ) ;
#134 = AXIS2_PLACEMENT_3D ( 'NONE', #20, #6, #128 ) ;
#135 = APPROVAL ( #18, 'UNSPECIFIED' ) ;
#136 = COORDINATED_UNIVERSAL_TIME_OFFSET ( 5, 0, .BEHIND. ) ;
#137 = VERTEX_POINT ( 'NONE', #173 ) ;
#138 = PERSON_AND_ORGANIZATION ( #25, #29 ) ;
#139 = PERSON_AND_ORGANIZATION_ROLE ( 'creator' ) ;
#140 = DESIGN_CONTEXT ( 'detailed design', #89, 'design' ) ;
#141 = DIRECTION ( 'NONE',  ( 1.000000000000000000, 0.0000000000000000000, -0.0000000000000000000 ) ) ;
#142 = ORIENTED_EDGE ( 'NONE', *, *, #129, .F. ) ;
#143 = MECHANICAL_CONTEXT ( 'NONE', #111, 'mechanical' ) ;
#144 = CYLINDRICAL_SURFACE ( 'NONE', #123, 12.50000000000000000 ) ;
#145 = CARTESIAN_POINT ( 'NONE',  ( 0.0000000000000000000, 0.0000000000000000000, -4.000000000000000000 ) ) ;
#146 = CARTESIAN_POINT ( 'NONE',  ( 0.0000000000000000000, 0.0000000000000000000, 0.0000000000000000000 ) ) ;
#147 = DATE_AND_TIME ( #54, #65 ) ;
#148 = AXIS2_PLACEMENT_3D ( 'NONE', #11, #64, #161 ) ;
#149 = FACE_OUTER_BOUND ( 'NONE', #152, .T. ) ;
#150 = ORIENTED_EDGE ( 'NONE', *, *, #84, .T. ) ;
#151 = ADVANCED_BREP_SHAPE_REPRESENTATION ( 'Web Model 45076', ( #33, #95 ), #108 ) ;
#152 = EDGE_LOOP ( 'NONE', ( #52, #97, #80, #40 ) ) ;
#153 = ADVANCED_FACE ( 'NONE', ( #86 ), #90, .F. ) ;
#154 = CC_DESIGN_PERSON_AND_ORGANIZATION_ASSIGNMENT ( #124, #99, ( #172 ) ) ;
#155 = DATE_AND_TIME ( #41, #13 ) ;
#156 = SECURITY_CLASSIFICATION_LEVEL ( 'unclassified' ) ;
#157 = LOCAL_TIME ( 10, 17, 19.00000000000000000, #15 ) ;
#158 = APPLICATION_PROTOCOL_DEFINITION ( 'international standard', 'config_control_design', 1994, #89 ) ;
#159 = PERSON_AND_ORGANIZATION_ROLE ( 'classification_officer' ) ;
#160 = EDGE_LOOP ( 'NONE', ( #115, #62, #150, #142 ) ) ;
#161 = DIRECTION ( 'NONE',  ( 1.000000000000000000, 0.0000000000000000000, 0.0000000000000000000 ) ) ;
#162 = AXIS2_PLACEMENT_3D ( 'NONE', #26, #44, #141 ) ;
#163 = CIRCLE ( 'NONE', #133, 12.50000000000000000 ) ;
#164 = CC_DESIGN_PERSON_AND_ORGANIZATION_ASSIGNMENT ( #56, #159, ( #168 ) ) ;
#165 = EDGE_CURVE ( 'NONE', #63, #125, #78, .T. ) ;
#166 = CALENDAR_DATE ( 2017, 31, 1 ) ;
#167 = DIRECTION ( 'NONE',  ( 0.0000000000000000000, 0.0000000000000000000, 1.000000000000000000 ) ) ;
#168 = SECURITY_CLASSIFICATION ( '', '', #156 ) ;
#169 = EDGE_CURVE ( 'NONE', #43, #137, #107, .T. ) ;
#170 = PERSON_AND_ORGANIZATION ( #25, #29 ) ;
#171 = DIRECTION ( 'NONE',  ( 0.0000000000000000000, 0.0000000000000000000, 1.000000000000000000 ) ) ;
#172 = PRODUCT_DEFINITION ( 'UNKNOWN', '', #45, #140 ) ;
#173 = CARTESIAN_POINT ( 'NONE',  ( -12.50000000000000000, 1.530808498934191500E-015, 0.0000000000000000000 ) ) ;
#174 = DIRECTION ( 'NONE',  ( 1.000000000000000000, 0.0000000000000000000, 0.0000000000000000000 ) ) ;
#175 = DATE_TIME_ROLE ( 'classification_date' ) ;
ENDSEC;
END-ISO-10303-21;
