ISO-10303-21;
HEADER;
FILE_DESCRIPTION (( 'STEP AP214' ),
    '1' );
FILE_NAME ('4570-E0W.STEP',
    '2009-12-21T17:10:48',
    ( ' ' ),
    ( ' ' ),
    'SwSTEP 2.0',
    'SolidWorks 2009',
    '' );
FILE_SCHEMA (( 'AUTOMOTIVE_DESIGN' ));
ENDSEC;

DATA;
#1 = EDGE_LOOP ( 'NONE', ( #61, #36, #28, #12, #68 ) ) ;
#2 = EDGE_LOOP ( 'NONE', ( #16, #17, #24, #8 ) ) ;
#3 = EDGE_CURVE ( 'NONE', #73, #66, #52, .T. ) ;
#4 = VERTEX_POINT ( 'NONE', #71 ) ;
#5 = VERTEX_POINT ( 'NONE', #74 ) ;
#6 = ORIENTED_EDGE ( 'NONE', *, *, #60, .T. ) ;
#7 = EDGE_LOOP ( 'NONE', ( #23, #67, #70, #30 ) ) ;
#8 = ORIENTED_EDGE ( 'NONE', *, *, #34, .T. ) ;
#9 = MECHANICAL_DESIGN_GEOMETRIC_PRESENTATION_REPRESENTATION (  '', ( #11 ), #259 ) ;
#10 = PRESENTATION_LAYER_ASSIGNMENT (  '', '', ( #11 ) ) ;
#11 = STYLED_ITEM ( 'NONE', ( #228 ), #218 ) ;
#12 = ORIENTED_EDGE ( 'NONE', *, *, #18, .F. ) ;
#13 = ORIENTED_EDGE ( 'NONE', *, *, #14, .F. ) ;
#14 = EDGE_CURVE ( 'NONE', #15, #5, #58, .T. ) ;
#15 = VERTEX_POINT ( 'NONE', #59 ) ;
#16 = ORIENTED_EDGE ( 'NONE', *, *, #65, .F. ) ;
#17 = ORIENTED_EDGE ( 'NONE', *, *, #18, .T. ) ;
#18 = EDGE_CURVE ( 'NONE', #66, #15, #56, .T. ) ;
#19 = ADVANCED_FACE ( 'NONE', ( #57 ), #78, .T. ) ;
#20 = ORIENTED_EDGE ( 'NONE', *, *, #22, .F. ) ;
#21 = MANIFOLD_SOLID_BREP ( 'NONE', #25 ) ;
#22 = EDGE_CURVE ( 'NONE', #5, #73, #92, .T. ) ;
#23 = ORIENTED_EDGE ( 'NONE', *, *, #22, .T. ) ;
#24 = ORIENTED_EDGE ( 'NONE', *, *, #14, .T. ) ;
#25 = CLOSED_SHELL ( 'NONE', ( #26, #19, #31, #29, #69 ) ) ;
#26 = ADVANCED_FACE ( 'NONE', ( #129 ), #93, .T. ) ;
#27 = EDGE_CURVE ( 'NONE', #44, #64, #143, .T. ) ;
#28 = ORIENTED_EDGE ( 'NONE', *, *, #62, .T. ) ;
#29 = ADVANCED_FACE ( 'NONE', ( #135 ), #134, .T. ) ;
#30 = ORIENTED_EDGE ( 'NONE', *, *, #34, .F. ) ;
#31 = ADVANCED_FACE ( 'NONE', ( #171 ), #176, .T. ) ;
#32 = ORIENTED_EDGE ( 'NONE', *, *, #27, .F. ) ;
#33 = EDGE_LOOP ( 'NONE', ( #37, #6, #20, #13, #38 ) ) ;
#34 = EDGE_CURVE ( 'NONE', #5, #4, #212, .T. ) ;
#35 = ORIENTED_EDGE ( 'NONE', *, *, #72, .F. ) ;
#36 = ORIENTED_EDGE ( 'NONE', *, *, #27, .T. ) ;
#37 = ORIENTED_EDGE ( 'NONE', *, *, #72, .T. ) ;
#38 = ORIENTED_EDGE ( 'NONE', *, *, #62, .F. ) ;
#39 = FILL_AREA_STYLE_COLOUR ( '', #40 ) ;
#40 = COLOUR_RGB ( '',0.9568627450980391500, 0.9490196078431372100, 0.9607843137254902200 ) ;
#41 = DIRECTION ( 'NONE',  ( 1.000000000000000000, 0.0000000000000000000, 0.0000000000000000000 ) ) ;
#42 = DIRECTION ( 'NONE',  ( 1.000000000000000000, 0.0000000000000000000, 0.0000000000000000000 ) ) ;
#43 = DIRECTION ( 'NONE',  ( 1.000000000000000000, 0.0000000000000000000, 0.0000000000000000000 ) ) ;
#44 = VERTEX_POINT ( 'NONE', #197 ) ;
#45 = DIRECTION ( 'NONE',  ( -0.0000000000000000000, -0.0000000000000000000, 1.000000000000000000 ) ) ;
#46 = CARTESIAN_POINT ( 'NONE',  ( 0.0000000000000000000, 0.0000000000000000000, 0.3968747508371834300 ) ) ;
#47 = AXIS2_PLACEMENT_3D ( 'NONE', #46, #45, #43 ) ;
#48 = EDGE_LOOP ( 'NONE', ( #35, #32 ) ) ;
#49 = DIRECTION ( 'NONE',  ( -0.0000000000000000000, -0.0000000000000000000, 1.000000000000000000 ) ) ;
#50 = CARTESIAN_POINT ( 'NONE',  ( 0.0000000000000000000, 0.0000000000000000000, 0.3968747508371834300 ) ) ;
#51 = AXIS2_PLACEMENT_3D ( 'NONE', #50, #49, #42 ) ;
#52 = CIRCLE ( 'NONE', #51, 6.350000000000001400 ) ;
#53 = DIRECTION ( 'NONE',  ( -0.0000000000000000000, -0.0000000000000000000, 1.000000000000000000 ) ) ;
#54 = CARTESIAN_POINT ( 'NONE',  ( 0.0000000000000000000, 0.0000000000000000000, 0.3968747508371834300 ) ) ;
#55 = AXIS2_PLACEMENT_3D ( 'NONE', #54, #53, #41 ) ;
#56 = CIRCLE ( 'NONE', #55, 6.350000000000001400 ) ;
#57 = FACE_OUTER_BOUND ( 'NONE', #7, .T. ) ;
#58 = CIRCLE ( 'NONE', #47, 6.350000000000001400 ) ;
#59 = CARTESIAN_POINT ( 'NONE',  ( 6.350000000000002300, 0.0000000000000000000, 0.3968747508371834300 ) ) ;
#60 = EDGE_CURVE ( 'NONE', #44, #73, #208, .T. ) ;
#61 = ORIENTED_EDGE ( 'NONE', *, *, #60, .F. ) ;
#62 = EDGE_CURVE ( 'NONE', #64, #15, #191, .T. ) ;
#63 =( LENGTH_UNIT ( ) NAMED_UNIT ( * ) SI_UNIT ( .MILLI., .METRE. ) );
#64 = VERTEX_POINT ( 'NONE', #192 ) ;
#65 = EDGE_CURVE ( 'NONE', #66, #4, #183, .T. ) ;
#66 = VERTEX_POINT ( 'NONE', #185 ) ;
#67 = ORIENTED_EDGE ( 'NONE', *, *, #3, .T. ) ;
#68 = ORIENTED_EDGE ( 'NONE', *, *, #3, .F. ) ;
#69 = ADVANCED_FACE ( 'NONE', ( #200 ), #235, .F. ) ;
#70 = ORIENTED_EDGE ( 'NONE', *, *, #65, .T. ) ;
#71 = CARTESIAN_POINT ( 'NONE',  ( 0.0000000000000000000, 1.261344544437048600E-015, 1.399999999999998600 ) ) ;
#72 = EDGE_CURVE ( 'NONE', #64, #44, #221, .T. ) ;
#73 = VERTEX_POINT ( 'NONE', #237 ) ;
#74 = CARTESIAN_POINT ( 'NONE',  ( 0.0000000000000000000, 6.350000000000004100, 0.3968747508371829900 ) ) ;
#75 = STYLED_ITEM ( 'NONE', ( #82 ), #19 ) ;
#76 =( NAMED_UNIT ( * ) SI_UNIT ( $, .STERADIAN. ) SOLID_ANGLE_UNIT ( ) );
#77 = SURFACE_STYLE_FILL_AREA ( #81 ) ;
#78 = SPHERICAL_SURFACE ( 'NONE', #101, 20.60000000000000100 ) ;
#79 = MECHANICAL_DESIGN_GEOMETRIC_PRESENTATION_REPRESENTATION (  '', ( #75 ), #88 ) ;
#80 = SURFACE_STYLE_USAGE ( .BOTH. , #86 ) ;
#81 = FILL_AREA_STYLE ('',( #39 ) ) ;
#82 = PRESENTATION_STYLE_ASSIGNMENT (( #80 ) ) ;
#83 =( NAMED_UNIT ( * ) PLANE_ANGLE_UNIT ( ) SI_UNIT ( $, .RADIAN. ) );
#84 = UNCERTAINTY_MEASURE_WITH_UNIT (LENGTH_MEASURE( 1.000000000000000100E-005 ), #87, 'distance_accuracy_value', 'NONE');
#85 = PRESENTATION_LAYER_ASSIGNMENT (  '', '', ( #75 ) ) ;
#86 = SURFACE_SIDE_STYLE ('',( #77 ) ) ;
#87 =( LENGTH_UNIT ( ) NAMED_UNIT ( * ) SI_UNIT ( .MILLI., .METRE. ) );
#88 =( GEOMETRIC_REPRESENTATION_CONTEXT ( 3 ) GLOBAL_UNCERTAINTY_ASSIGNED_CONTEXT ( ( #84 ) ) GLOBAL_UNIT_ASSIGNED_CONTEXT ( ( #87, #83, #76 ) ) REPRESENTATION_CONTEXT ( 'NONE', 'WORKASPACE' ) );
#89 = FILL_AREA_STYLE ('',( #114 ) ) ;
#90 =( GEOMETRIC_REPRESENTATION_CONTEXT ( 3 ) GLOBAL_UNCERTAINTY_ASSIGNED_CONTEXT ( ( #102 ) ) GLOBAL_UNIT_ASSIGNED_CONTEXT ( ( #111, #103, #97 ) ) REPRESENTATION_CONTEXT ( 'NONE', 'WORKASPACE' ) );
#91 = DIRECTION ( 'NONE',  ( 0.0000000000000000000, 1.000000000000000000, 0.0000000000000000000 ) ) ;
#92 = CIRCLE ( 'NONE', #108, 6.350000000000001400 ) ;
#93 = CYLINDRICAL_SURFACE ( 'NONE', #166, 6.350000000000000500 ) ;
#94 = SURFACE_STYLE_USAGE ( .BOTH. , #95 ) ;
#95 = SURFACE_SIDE_STYLE ('',( #109 ) ) ;
#96 = DIRECTION ( 'NONE',  ( -1.000000000000000000, 0.0000000000000000000, 0.0000000000000000000 ) ) ;
#97 =( NAMED_UNIT ( * ) SI_UNIT ( $, .STERADIAN. ) SOLID_ANGLE_UNIT ( ) );
#98 = PRESENTATION_LAYER_ASSIGNMENT (  '', '', ( #110 ) ) ;
#99 = CARTESIAN_POINT ( 'NONE',  ( 0.0000000000000000000, 0.0000000000000000000, -19.20000000000000300 ) ) ;
#100 = PRESENTATION_STYLE_ASSIGNMENT (( #94 ) ) ;
#101 = AXIS2_PLACEMENT_3D ( 'NONE', #99, #96, #91 ) ;
#102 = UNCERTAINTY_MEASURE_WITH_UNIT (LENGTH_MEASURE( 1.000000000000000100E-005 ), #111, 'distance_accuracy_value', 'NONE');
#103 =( NAMED_UNIT ( * ) PLANE_ANGLE_UNIT ( ) SI_UNIT ( $, .RADIAN. ) );
#104 = DIRECTION ( 'NONE',  ( 0.0000000000000000000, 1.000000000000000000, 0.0000000000000000000 ) ) ;
#105 = DIRECTION ( 'NONE',  ( 1.000000000000000000, 0.0000000000000000000, 0.0000000000000000000 ) ) ;
#106 = DIRECTION ( 'NONE',  ( -0.0000000000000000000, -0.0000000000000000000, 1.000000000000000000 ) ) ;
#107 = CARTESIAN_POINT ( 'NONE',  ( 0.0000000000000000000, 0.0000000000000000000, 0.3968747508371834300 ) ) ;
#108 = AXIS2_PLACEMENT_3D ( 'NONE', #107, #106, #105 ) ;
#109 = SURFACE_STYLE_FILL_AREA ( #89 ) ;
#110 = STYLED_ITEM ( 'NONE', ( #100 ), #21 ) ;
#111 =( LENGTH_UNIT ( ) NAMED_UNIT ( * ) SI_UNIT ( .MILLI., .METRE. ) );
#112 = COLOUR_RGB ( '',0.7960784313725489700, 0.8235294117647058400, 0.9372549019607843100 ) ;
#113 = MECHANICAL_DESIGN_GEOMETRIC_PRESENTATION_REPRESENTATION (  '', ( #110 ), #90 ) ;
#114 = FILL_AREA_STYLE_COLOUR ( '', #112 ) ;
#115 = PRESENTATION_LAYER_ASSIGNMENT (  '', '', ( #126 ) ) ;
#116 =( LENGTH_UNIT ( ) NAMED_UNIT ( * ) SI_UNIT ( .MILLI., .METRE. ) );
#117 =( GEOMETRIC_REPRESENTATION_CONTEXT ( 3 ) GLOBAL_UNCERTAINTY_ASSIGNED_CONTEXT ( ( #127 ) ) GLOBAL_UNIT_ASSIGNED_CONTEXT ( ( #116, #122, #128 ) ) REPRESENTATION_CONTEXT ( 'NONE', 'WORKASPACE' ) );
#118 = SURFACE_SIDE_STYLE ('',( #120 ) ) ;
#119 = FILL_AREA_STYLE ('',( #121 ) ) ;
#120 = SURFACE_STYLE_FILL_AREA ( #119 ) ;
#121 = FILL_AREA_STYLE_COLOUR ( '', #130 ) ;
#122 =( NAMED_UNIT ( * ) PLANE_ANGLE_UNIT ( ) SI_UNIT ( $, .RADIAN. ) );
#123 = MECHANICAL_DESIGN_GEOMETRIC_PRESENTATION_REPRESENTATION (  '', ( #126 ), #117 ) ;
#124 = SURFACE_STYLE_USAGE ( .BOTH. , #118 ) ;
#125 = PRESENTATION_STYLE_ASSIGNMENT (( #124 ) ) ;
#126 = STYLED_ITEM ( 'NONE', ( #125 ), #26 ) ;
#127 = UNCERTAINTY_MEASURE_WITH_UNIT (LENGTH_MEASURE( 1.000000000000000100E-005 ), #116, 'distance_accuracy_value', 'NONE');
#128 =( NAMED_UNIT ( * ) SI_UNIT ( $, .STERADIAN. ) SOLID_ANGLE_UNIT ( ) );
#129 = FACE_OUTER_BOUND ( 'NONE', #33, .T. ) ;
#130 = COLOUR_RGB ( '',0.9568627450980391500, 0.9490196078431372100, 0.9607843137254902200 ) ;
#131 = DIRECTION ( 'NONE',  ( 1.000000000000000000, 0.0000000000000000000, 0.0000000000000000000 ) ) ;
#132 = PRESENTATION_LAYER_ASSIGNMENT (  '', '', ( #133 ) ) ;
#133 = STYLED_ITEM ( 'NONE', ( #148 ), #31 ) ;
#134 = CYLINDRICAL_SURFACE ( 'NONE', #146, 6.350000000000000500 ) ;
#135 = FACE_OUTER_BOUND ( 'NONE', #1, .T. ) ;
#136 =( NAMED_UNIT ( * ) PLANE_ANGLE_UNIT ( ) SI_UNIT ( $, .RADIAN. ) );
#137 = CARTESIAN_POINT ( 'NONE',  ( 0.0000000000000000000, 0.0000000000000000000, 4.308132045400366600 ) ) ;
#138 = FILL_AREA_STYLE ('',( #155 ) ) ;
#139 = DIRECTION ( 'NONE',  ( 1.000000000000000000, 0.0000000000000000000, 0.0000000000000000000 ) ) ;
#140 = PRESENTATION_LAYER_ASSIGNMENT (  '', '', ( #169 ) ) ;
#141 = DIRECTION ( 'NONE',  ( -0.0000000000000000000, -0.0000000000000000000, 1.000000000000000000 ) ) ;
#142 = DIRECTION ( 'NONE',  ( -0.0000000000000000000, -0.0000000000000000000, 1.000000000000000000 ) ) ;
#143 = CIRCLE ( 'NONE', #147, 6.349999999999999600 ) ;
#144 =( LENGTH_UNIT ( ) NAMED_UNIT ( * ) SI_UNIT ( .MILLI., .METRE. ) );
#145 = CARTESIAN_POINT ( 'NONE',  ( 0.0000000000000000000, 0.0000000000000000000, 4.308132045400366600 ) ) ;
#146 = AXIS2_PLACEMENT_3D ( 'NONE', #145, #160, #159 ) ;
#147 = AXIS2_PLACEMENT_3D ( 'NONE', #178, #141, #139 ) ;
#148 = PRESENTATION_STYLE_ASSIGNMENT (( #149 ) ) ;
#149 = SURFACE_STYLE_USAGE ( .BOTH. , #150 ) ;
#150 = SURFACE_SIDE_STYLE ('',( #179 ) ) ;
#151 =( LENGTH_UNIT ( ) NAMED_UNIT ( * ) SI_UNIT ( .MILLI., .METRE. ) );
#152 = PRESENTATION_STYLE_ASSIGNMENT (( #168 ) ) ;
#153 = MECHANICAL_DESIGN_GEOMETRIC_PRESENTATION_REPRESENTATION (  '', ( #169 ), #154 ) ;
#154 =( GEOMETRIC_REPRESENTATION_CONTEXT ( 3 ) GLOBAL_UNCERTAINTY_ASSIGNED_CONTEXT ( ( #157 ) ) GLOBAL_UNIT_ASSIGNED_CONTEXT ( ( #144, #136, #162 ) ) REPRESENTATION_CONTEXT ( 'NONE', 'WORKASPACE' ) );
#155 = FILL_AREA_STYLE_COLOUR ( '', #158 ) ;
#156 =( GEOMETRIC_REPRESENTATION_CONTEXT ( 3 ) GLOBAL_UNCERTAINTY_ASSIGNED_CONTEXT ( ( #164 ) ) GLOBAL_UNIT_ASSIGNED_CONTEXT ( ( #151, #165, #161 ) ) REPRESENTATION_CONTEXT ( 'NONE', 'WORKASPACE' ) );
#157 = UNCERTAINTY_MEASURE_WITH_UNIT (LENGTH_MEASURE( 1.000000000000000100E-005 ), #144, 'distance_accuracy_value', 'NONE');
#158 = COLOUR_RGB ( '',0.9568627450980391500, 0.9490196078431372100, 0.9607843137254902200 ) ;
#159 = DIRECTION ( 'NONE',  ( 1.000000000000000000, 0.0000000000000000000, 0.0000000000000000000 ) ) ;
#160 = DIRECTION ( 'NONE',  ( -0.0000000000000000000, -0.0000000000000000000, 1.000000000000000000 ) ) ;
#161 =( NAMED_UNIT ( * ) SI_UNIT ( $, .STERADIAN. ) SOLID_ANGLE_UNIT ( ) );
#162 =( NAMED_UNIT ( * ) SI_UNIT ( $, .STERADIAN. ) SOLID_ANGLE_UNIT ( ) );
#163 = SURFACE_STYLE_FILL_AREA ( #138 ) ;
#164 = UNCERTAINTY_MEASURE_WITH_UNIT (LENGTH_MEASURE( 1.000000000000000100E-005 ), #151, 'distance_accuracy_value', 'NONE');
#165 =( NAMED_UNIT ( * ) PLANE_ANGLE_UNIT ( ) SI_UNIT ( $, .RADIAN. ) );
#166 = AXIS2_PLACEMENT_3D ( 'NONE', #137, #142, #131 ) ;
#167 = MECHANICAL_DESIGN_GEOMETRIC_PRESENTATION_REPRESENTATION (  '', ( #133 ), #156 ) ;
#168 = SURFACE_STYLE_USAGE ( .BOTH. , #172 ) ;
#169 = STYLED_ITEM ( 'NONE', ( #152 ), #29 ) ;
#170 = COLOUR_RGB ( '',0.9568627450980391500, 0.9490196078431372100, 0.9607843137254902200 ) ;
#171 = FACE_OUTER_BOUND ( 'NONE', #2, .T. ) ;
#172 = SURFACE_SIDE_STYLE ('',( #163 ) ) ;
#173 = DIRECTION ( 'NONE',  ( -1.000000000000000000, 0.0000000000000000000, 0.0000000000000000000 ) ) ;
#174 = CARTESIAN_POINT ( 'NONE',  ( 0.0000000000000000000, 0.0000000000000000000, -19.20000000000000300 ) ) ;
#175 = AXIS2_PLACEMENT_3D ( 'NONE', #174, #173, #104 ) ;
#176 = SPHERICAL_SURFACE ( 'NONE', #175, 20.60000000000000100 ) ;
#177 =( GEOMETRIC_REPRESENTATION_CONTEXT ( 3 ) GLOBAL_UNCERTAINTY_ASSIGNED_CONTEXT ( ( #196 ) ) GLOBAL_UNIT_ASSIGNED_CONTEXT ( ( #209, #206, #194 ) ) REPRESENTATION_CONTEXT ( 'NONE', 'WORKASPACE' ) );
#178 = CARTESIAN_POINT ( 'NONE',  ( 0.0000000000000000000, 0.0000000000000000000, -1.400000000000000100 ) ) ;
#179 = SURFACE_STYLE_FILL_AREA ( #180 ) ;
#180 = FILL_AREA_STYLE ('',( #181 ) ) ;
#181 = FILL_AREA_STYLE_COLOUR ( '', #170 ) ;
#182 = DIRECTION ( 'NONE',  ( 0.0000000000000000000, 0.0000000000000000000, -1.000000000000000000 ) ) ;
#183 = CIRCLE ( 'NONE', #216, 20.60000000000000100 ) ;
#184 = FILL_AREA_STYLE ('',( #198 ) ) ;
#185 = CARTESIAN_POINT ( 'NONE',  ( -7.776250346772100300E-016, -6.350000000000004100, 0.3968747508371829900 ) ) ;
#186 = STYLED_ITEM ( 'NONE', ( #187 ), #69 ) ;
#187 = PRESENTATION_STYLE_ASSIGNMENT (( #188 ) ) ;
#188 = SURFACE_STYLE_USAGE ( .BOTH. , #189 ) ;
#189 = SURFACE_SIDE_STYLE ('',( #190 ) ) ;
#190 = SURFACE_STYLE_FILL_AREA ( #184 ) ;
#191 = LINE ( 'NONE', #193, #203 ) ;
#192 = CARTESIAN_POINT ( 'NONE',  ( 6.349999999999999600, 0.0000000000000000000, -1.400000000000000100 ) ) ;
#193 = CARTESIAN_POINT ( 'NONE',  ( 6.350000000000000500, 0.0000000000000000000, 4.308132045400366600 ) ) ;
#194 =( NAMED_UNIT ( * ) SI_UNIT ( $, .STERADIAN. ) SOLID_ANGLE_UNIT ( ) );
#195 = DIRECTION ( 'NONE',  ( 1.000000000000000000, 0.0000000000000000000, 0.0000000000000000000 ) ) ;
#196 = UNCERTAINTY_MEASURE_WITH_UNIT (LENGTH_MEASURE( 1.000000000000000100E-005 ), #209, 'distance_accuracy_value', 'NONE');
#197 = CARTESIAN_POINT ( 'NONE',  ( -6.349999999999999600, 7.776250346772096400E-016, -1.400000000000000100 ) ) ;
#198 = FILL_AREA_STYLE_COLOUR ( '', #199 ) ;
#199 = COLOUR_RGB ( '',0.9568627450980391500, 0.9490196078431372100, 0.9607843137254902200 ) ;
#200 = FACE_OUTER_BOUND ( 'NONE', #48, .T. ) ;
#201 = DIRECTION ( 'NONE',  ( -1.224606353822377300E-016, -1.000000000000000000, 0.0000000000000000000 ) ) ;
#202 = CARTESIAN_POINT ( 'NONE',  ( 0.0000000000000000000, 0.0000000000000000000, -19.20000000000000300 ) ) ;
#203 = VECTOR ( 'NONE', #213, 1000.000000000000000 ) ;
#204 = DIRECTION ( 'NONE',  ( -0.0000000000000000000, -0.0000000000000000000, 1.000000000000000000 ) ) ;
#205 = AXIS2_PLACEMENT_3D ( 'NONE', #202, #195, #182 ) ;
#206 =( NAMED_UNIT ( * ) PLANE_ANGLE_UNIT ( ) SI_UNIT ( $, .RADIAN. ) );
#207 = CARTESIAN_POINT ( 'NONE',  ( -6.350000000000000500, 7.776250346772096400E-016, 4.308132045400366600 ) ) ;
#208 = LINE ( 'NONE', #207, #217 ) ;
#209 =( LENGTH_UNIT ( ) NAMED_UNIT ( * ) SI_UNIT ( .MILLI., .METRE. ) );
#210 = MECHANICAL_DESIGN_GEOMETRIC_PRESENTATION_REPRESENTATION (  '', ( #186 ), #177 ) ;
#211 = PRESENTATION_LAYER_ASSIGNMENT (  '', '', ( #186 ) ) ;
#212 = CIRCLE ( 'NONE', #205, 20.60000000000000100 ) ;
#213 = DIRECTION ( 'NONE',  ( -0.0000000000000000000, -0.0000000000000000000, 1.000000000000000000 ) ) ;
#214 = DIRECTION ( 'NONE',  ( -1.000000000000000000, 1.224606353822377300E-016, 0.0000000000000000000 ) ) ;
#215 = CARTESIAN_POINT ( 'NONE',  ( 0.0000000000000000000, 0.0000000000000000000, -19.20000000000000300 ) ) ;
#216 = AXIS2_PLACEMENT_3D ( 'NONE', #215, #214, #201 ) ;
#217 = VECTOR ( 'NONE', #204, 1000.000000000000000 ) ;
#218 = ADVANCED_BREP_SHAPE_REPRESENTATION ( '4570-E0W', ( #21, #242 ), #239 ) ;
#219 = DIRECTION ( 'NONE',  ( 0.0000000000000000000, -0.0000000000000000000, 1.000000000000000000 ) ) ;
#220 =( NAMED_UNIT ( * ) SI_UNIT ( $, .STERADIAN. ) SOLID_ANGLE_UNIT ( ) );
#221 = CIRCLE ( 'NONE', #236, 6.349999999999999600 ) ;
#222 =( NAMED_UNIT ( * ) PLANE_ANGLE_UNIT ( ) SI_UNIT ( $, .RADIAN. ) );
#223 = DIRECTION ( 'NONE',  ( 1.000000000000000000, 0.0000000000000000000, 0.0000000000000000000 ) ) ;
#224 = UNCERTAINTY_MEASURE_WITH_UNIT (LENGTH_MEASURE( 1.000000000000000100E-005 ), #226, 'distance_accuracy_value', 'NONE');
#225 = AXIS2_PLACEMENT_3D ( 'NONE', #227, #219, #223 ) ;
#226 =( LENGTH_UNIT ( ) NAMED_UNIT ( * ) SI_UNIT ( .MILLI., .METRE. ) );
#227 = CARTESIAN_POINT ( 'NONE',  ( 0.0000000000000000000, 5.143516556418882900E-016, -1.399999999999999900 ) ) ;
#228 = PRESENTATION_STYLE_ASSIGNMENT (( #229 ) ) ;
#229 = SURFACE_STYLE_USAGE ( .BOTH. , #230 ) ;
#230 = SURFACE_SIDE_STYLE ('',( #231 ) ) ;
#231 = SURFACE_STYLE_FILL_AREA ( #232 ) ;
#232 = FILL_AREA_STYLE ('',( #233 ) ) ;
#233 = FILL_AREA_STYLE_COLOUR ( '', #234 ) ;
#234 = COLOUR_RGB ( '',0.7960784313725489700, 0.8235294117647058400, 0.9372549019607843100 ) ;
#235 = PLANE ( 'NONE',  #225 ) ;
#236 = AXIS2_PLACEMENT_3D ( 'NONE', #241, #240, #238 ) ;
#237 = CARTESIAN_POINT ( 'NONE',  ( -6.350000000000002300, 7.776250346772098400E-016, 0.3968747508371834300 ) ) ;
#238 = DIRECTION ( 'NONE',  ( 1.000000000000000000, 0.0000000000000000000, 0.0000000000000000000 ) ) ;
#239 =( GEOMETRIC_REPRESENTATION_CONTEXT ( 3 ) GLOBAL_UNCERTAINTY_ASSIGNED_CONTEXT ( ( #224 ) ) GLOBAL_UNIT_ASSIGNED_CONTEXT ( ( #226, #222, #220 ) ) REPRESENTATION_CONTEXT ( 'NONE', 'WORKASPACE' ) );
#240 = DIRECTION ( 'NONE',  ( -0.0000000000000000000, -0.0000000000000000000, 1.000000000000000000 ) ) ;
#241 = CARTESIAN_POINT ( 'NONE',  ( 0.0000000000000000000, 0.0000000000000000000, -1.400000000000000100 ) ) ;
#242 = AXIS2_PLACEMENT_3D ( 'NONE', #246, #258, #247 ) ;
#243 = APPLICATION_PROTOCOL_DEFINITION ( 'draft international standard', 'automotive_design', 1998, #244 ) ;
#244 = APPLICATION_CONTEXT ( 'automotive_design' ) ;
#245 = UNCERTAINTY_MEASURE_WITH_UNIT (LENGTH_MEASURE( 1.000000000000000100E-005 ), #63, 'distance_accuracy_value', 'NONE');
#246 = CARTESIAN_POINT ( 'NONE',  ( 0.0000000000000000000, 0.0000000000000000000, 0.0000000000000000000 ) ) ;
#247 = DIRECTION ( 'NONE',  ( 1.000000000000000000, 0.0000000000000000000, 0.0000000000000000000 ) ) ;
#248 =( NAMED_UNIT ( * ) PLANE_ANGLE_UNIT ( ) SI_UNIT ( $, .RADIAN. ) );
#249 = PRODUCT ( '4570-E0W', '4570-E0W', '', ( #250 ) ) ;
#250 = PRODUCT_CONTEXT ( 'NONE', #244, 'mechanical' ) ;
#251 = PRODUCT_DEFINITION ( 'UNKNOWN', '', #256, #254 ) ;
#252 = APPLICATION_PROTOCOL_DEFINITION ( 'draft international standard', 'automotive_design', 1998, #253 ) ;
#253 = APPLICATION_CONTEXT ( 'automotive_design' ) ;
#254 = PRODUCT_DEFINITION_CONTEXT ( 'detailed design', #253, 'design' ) ;
#255 = PRODUCT_RELATED_PRODUCT_CATEGORY ( 'part', '', ( #249 ) ) ;
#256 = PRODUCT_DEFINITION_FORMATION_WITH_SPECIFIED_SOURCE ( 'ANY', '', #249, .NOT_KNOWN. ) ;
#257 =( NAMED_UNIT ( * ) SI_UNIT ( $, .STERADIAN. ) SOLID_ANGLE_UNIT ( ) );
#258 = DIRECTION ( 'NONE',  ( 0.0000000000000000000, 0.0000000000000000000, 1.000000000000000000 ) ) ;
#259 =( GEOMETRIC_REPRESENTATION_CONTEXT ( 3 ) GLOBAL_UNCERTAINTY_ASSIGNED_CONTEXT ( ( #245 ) ) GLOBAL_UNIT_ASSIGNED_CONTEXT ( ( #63, #248, #257 ) ) REPRESENTATION_CONTEXT ( 'NONE', 'WORKASPACE' ) );
#260 = SHAPE_DEFINITION_REPRESENTATION ( #261, #218 ) ;
#261 = PRODUCT_DEFINITION_SHAPE ( 'NONE', 'NONE',  #251 ) ;
ENDSEC;
END-ISO-10303-21;
