ISO-10303-21;
HEADER;
FILE_DESCRIPTION (( 'STEP AP203' ),
    '1' );
FILE_NAME ('Web Model 47777_47777.step',
    '2017-04-26T16:33:51',
    ( '' ),
    ( '' ),
    'SwSTEP 2.0',
    'SolidWorks 2016',
    '' );
FILE_SCHEMA (( 'CONFIG_CONTROL_DESIGN' ));
ENDSEC;

DATA;
#1 = CC_DESIGN_PERSON_AND_ORGANIZATION_ASSIGNMENT ( #199, #69, ( #314 ) ) ;
#2 = FACE_OUTER_BOUND ( 'NONE', #137, .T. ) ;
#3 = CARTESIAN_POINT ( 'NONE',  ( -9.199760500100243800E-016, -9.199760500100243800E-016, 5.000000000000000000 ) ) ;
#4 = LINE ( 'NONE', #24, #204 ) ;
#5 = CARTESIAN_POINT ( 'NONE',  ( -0.0000000000000000000, 4.999999999999999100, -5.000000000000000000 ) ) ;
#6 = DIRECTION ( 'NONE',  ( 0.7071067811865474600, -0.7071067811865474600, 0.0000000000000000000 ) ) ;
#7 = FACE_OUTER_BOUND ( 'NONE', #130, .T. ) ;
#8 = AXIS2_PLACEMENT_3D ( 'NONE', #269, #165, #116 ) ;
#9 = APPROVAL_PERSON_ORGANIZATION ( #63, #246, #210 ) ;
#10 = ORIENTED_EDGE ( 'NONE', *, *, #49, .T. ) ;
#11 = CARTESIAN_POINT ( 'NONE',  ( 0.0000000000000000000, -5.000000000000000900, 5.000000000000000000 ) ) ;
#12 = APPROVAL_ROLE ( '' ) ;
#13 = CARTESIAN_POINT ( 'NONE',  ( 4.999999999999999100, -5.000000000000000900, 5.000000000000000000 ) ) ;
#14 = COORDINATED_UNIVERSAL_TIME_OFFSET ( 5, 0, .BEHIND. ) ;
#15 = MANIFOLD_SOLID_BREP ( 'Boss-Extrude2', #151 ) ;
#16 = SECURITY_CLASSIFICATION_LEVEL ( 'unclassified' ) ;
#17 = CC_DESIGN_DATE_AND_TIME_ASSIGNMENT ( #308, #187, ( #314 ) ) ;
#18 = ORIENTED_EDGE ( 'NONE', *, *, #140, .T. ) ;
#19 = ORIENTED_EDGE ( 'NONE', *, *, #253, .T. ) ;
#20 = EDGE_LOOP ( 'NONE', ( #36, #128, #266 ) ) ;
#21 =( GEOMETRIC_REPRESENTATION_CONTEXT ( 3 ) GLOBAL_UNCERTAINTY_ASSIGNED_CONTEXT ( ( #134 ) ) GLOBAL_UNIT_ASSIGNED_CONTEXT ( ( #203, #294, #85 ) ) REPRESENTATION_CONTEXT ( 'NONE', 'WORKASPACE' ) );
#22 = FACE_OUTER_BOUND ( 'NONE', #279, .T. ) ;
#23 = ORIENTED_EDGE ( 'NONE', *, *, #293, .T. ) ;
#24 = CARTESIAN_POINT ( 'NONE',  ( -5.000000000000000900, 4.999999999999999100, 5.000000000000000000 ) ) ;
#25 = ADVANCED_FACE ( 'NONE', ( #2 ), #60, .F. ) ;
#26 = DATE_AND_TIME ( #54, #150 ) ;
#27 = PLANE ( 'NONE',  #104 ) ;
#28 = EDGE_CURVE ( 'NONE', #251, #34, #183, .T. ) ;
#29 = CARTESIAN_POINT ( 'NONE',  ( 4.999999999999999100, -5.000000000000000900, 5.000000000000000000 ) ) ;
#30 = CARTESIAN_POINT ( 'NONE',  ( -5.000000000000000900, 4.999999999999999100, 5.000000000000000000 ) ) ;
#31 = PRODUCT ( 'Web Model 47777_47777', 'Web Model 47777_47777', '', ( #227 ) ) ;
#32 = APPROVAL ( #129, 'UNSPECIFIED' ) ;
#33 = CARTESIAN_POINT ( 'NONE',  ( -5.000000000000000900, 4.999999999999999100, -5.000000000000000000 ) ) ;
#34 = VERTEX_POINT ( 'NONE', #191 ) ;
#35 = VECTOR ( 'NONE', #220, 1000.000000000000000 ) ;
#36 = ORIENTED_EDGE ( 'NONE', *, *, #287, .T. ) ;
#37 = APPROVAL_DATE_TIME ( #271, #162 ) ;
#38 = PLANE ( 'NONE',  #272 ) ;
#39 = CARTESIAN_POINT ( 'NONE',  ( 4.999999999999999100, 0.0000000000000000000, 5.000000000000000000 ) ) ;
#40 = AXIS2_PLACEMENT_3D ( 'NONE', #241, #306, #160 ) ;
#41 = DIRECTION ( 'NONE',  ( 0.0000000000000000000, 0.0000000000000000000, 1.000000000000000000 ) ) ;
#42 = LINE ( 'NONE', #215, #193 ) ;
#43 = PERSON_AND_ORGANIZATION_ROLE ( 'design_supplier' ) ;
#44 = CARTESIAN_POINT ( 'NONE',  ( 0.0000000000000000000, -5.000000000000000900, -5.000000000000000000 ) ) ;
#45 = VECTOR ( 'NONE', #202, 1000.000000000000000 ) ;
#46 = CARTESIAN_POINT ( 'NONE',  ( 4.999999999999999100, 4.999999999999999100, 5.000000000000000000 ) ) ;
#47 = LOCAL_TIME ( 12, 33, 51.00000000000000000, #113 ) ;
#48 = APPROVAL_PERSON_ORGANIZATION ( #254, #162, #12 ) ;
#49 = EDGE_CURVE ( 'NONE', #153, #245, #79, .T. ) ;
#50 = DIRECTION ( 'NONE',  ( 1.000000000000000000, 0.0000000000000000000, 0.0000000000000000000 ) ) ;
#51 = CC_DESIGN_APPROVAL ( #32, ( #314 ) ) ;
#52 = APPLICATION_CONTEXT ( 'configuration controlled 3d designs of mechanical parts and assemblies' ) ;
#53 = VERTEX_POINT ( 'NONE', #311 ) ;
#54 = CALENDAR_DATE ( 2017, 26, 4 ) ;
#55 = ADVANCED_FACE ( 'NONE', ( #121 ), #27, .T. ) ;
#56 = LINE ( 'NONE', #5, #35 ) ;
#57 = VECTOR ( 'NONE', #284, 1000.000000000000100 ) ;
#58 = PLANE ( 'NONE',  #304 ) ;
#59 = CARTESIAN_POINT ( 'NONE',  ( 0.0000000000000000000, 4.999999999999999100, 5.000000000000000000 ) ) ;
#60 = PLANE ( 'NONE',  #310 ) ;
#61 = FACE_OUTER_BOUND ( 'NONE', #114, .T. ) ;
#62 = MANIFOLD_SOLID_BREP ( 'Boss-Extrude3', #206 ) ;
#63 = PERSON_AND_ORGANIZATION ( #154, #207 ) ;
#64 = CARTESIAN_POINT ( 'NONE',  ( 0.0000000000000000000, 0.0000000000000000000, 5.000000000000000000 ) ) ;
#65 = DIRECTION ( 'NONE',  ( 0.0000000000000000000, 1.000000000000000000, -0.0000000000000000000 ) ) ;
#66 = EDGE_CURVE ( 'NONE', #171, #34, #243, .T. ) ;
#67 = CARTESIAN_POINT ( 'NONE',  ( -5.000000000000000900, -5.000000000000000900, 5.000000000000000000 ) ) ;
#68 = ORIENTED_EDGE ( 'NONE', *, *, #194, .F. ) ;
#69 = PERSON_AND_ORGANIZATION_ROLE ( 'classification_officer' ) ;
#70 = VECTOR ( 'NONE', #158, 1000.000000000000000 ) ;
#71 = CC_DESIGN_SECURITY_CLASSIFICATION ( #314, ( #225 ) ) ;
#72 = EDGE_LOOP ( 'NONE', ( #178, #226, #185 ) ) ;
#73 = APPROVAL_PERSON_ORGANIZATION ( #252, #32, #78 ) ;
#74 = ORIENTED_EDGE ( 'NONE', *, *, #257, .T. ) ;
#75 = CARTESIAN_POINT ( 'NONE',  ( -9.199760500100243800E-016, -9.199760500100243800E-016, 5.000000000000000000 ) ) ;
#76 = VECTOR ( 'NONE', #50, 1000.000000000000000 ) ;
#77 = VECTOR ( 'NONE', #87, 1000.000000000000000 ) ;
#78 = APPROVAL_ROLE ( '' ) ;
#79 = LINE ( 'NONE', #11, #76 ) ;
#80 = LINE ( 'NONE', #89, #297 ) ;
#81 = COORDINATED_UNIVERSAL_TIME_OFFSET ( 5, 0, .BEHIND. ) ;
#82 = ADVANCED_FACE ( 'NONE', ( #61 ), #105, .T. ) ;
#83 = CARTESIAN_POINT ( 'NONE',  ( 0.0000000000000000000, -5.000000000000000900, 5.000000000000000000 ) ) ;
#84 = CARTESIAN_POINT ( 'NONE',  ( 4.999999999999999100, -5.000000000000000900, 5.000000000000000000 ) ) ;
#85 =( NAMED_UNIT ( * ) SI_UNIT ( $, .STERADIAN. ) SOLID_ANGLE_UNIT ( ) );
#86 = ORIENTED_EDGE ( 'NONE', *, *, #140, .F. ) ;
#87 = DIRECTION ( 'NONE',  ( -0.0000000000000000000, -0.0000000000000000000, -1.000000000000000000 ) ) ;
#88 = VERTEX_POINT ( 'NONE', #103 ) ;
#89 = CARTESIAN_POINT ( 'NONE',  ( -9.199760500100243800E-016, -9.199760500100243800E-016, -5.000000000000000000 ) ) ;
#90 = LINE ( 'NONE', #39, #321 ) ;
#91 = DIRECTION ( 'NONE',  ( 0.0000000000000000000, 1.000000000000000000, 0.0000000000000000000 ) ) ;
#92 = ORIENTED_EDGE ( 'NONE', *, *, #293, .F. ) ;
#93 = PRODUCT_RELATED_PRODUCT_CATEGORY ( 'detail', '', ( #31 ) ) ;
#94 = LINE ( 'NONE', #316, #77 ) ;
#95 = PERSON_AND_ORGANIZATION ( #154, #207 ) ;
#96 = APPROVAL_DATE_TIME ( #100, #246 ) ;
#97 = ORIENTED_EDGE ( 'NONE', *, *, #122, .T. ) ;
#98 = DIRECTION ( 'NONE',  ( -0.0000000000000000000, -0.0000000000000000000, -1.000000000000000000 ) ) ;
#99 = CARTESIAN_POINT ( 'NONE',  ( -9.199760500100243800E-016, -9.199760500100243800E-016, -5.000000000000000000 ) ) ;
#100 = DATE_AND_TIME ( #282, #216 ) ;
#101 = PERSON_AND_ORGANIZATION ( #154, #207 ) ;
#102 = ORIENTED_EDGE ( 'NONE', *, *, #205, .F. ) ;
#103 = CARTESIAN_POINT ( 'NONE',  ( 4.999999999999999100, -5.000000000000000900, -5.000000000000000000 ) ) ;
#104 = AXIS2_PLACEMENT_3D ( 'NONE', #64, #224, #110 ) ;
#105 = PLANE ( 'NONE',  #131 ) ;
#106 = CARTESIAN_POINT ( 'NONE',  ( 4.999999999999999100, 4.999999999999999100, 5.000000000000000000 ) ) ;
#107 = ORIENTED_EDGE ( 'NONE', *, *, #287, .F. ) ;
#108 = EDGE_CURVE ( 'NONE', #270, #53, #56, .T. ) ;
#109 = CALENDAR_DATE ( 2017, 26, 4 ) ;
#110 = DIRECTION ( 'NONE',  ( 1.000000000000000000, 0.0000000000000000000, 0.0000000000000000000 ) ) ;
#111 = CARTESIAN_POINT ( 'NONE',  ( -5.000000000000000900, 4.999999999999999100, 5.000000000000000000 ) ) ;
#112 = AXIS2_PLACEMENT_3D ( 'NONE', #313, #240, #155 ) ;
#113 = COORDINATED_UNIVERSAL_TIME_OFFSET ( 5, 0, .BEHIND. ) ;
#114 = EDGE_LOOP ( 'NONE', ( #118, #290, #97, #197 ) ) ;
#115 = CARTESIAN_POINT ( 'NONE',  ( -5.000000000000000900, 0.0000000000000000000, 5.000000000000000000 ) ) ;
#116 = DIRECTION ( 'NONE',  ( 1.000000000000000000, 0.0000000000000000000, 0.0000000000000000000 ) ) ;
#117 = ORIENTED_EDGE ( 'NONE', *, *, #274, .F. ) ;
#118 = ORIENTED_EDGE ( 'NONE', *, *, #66, .F. ) ;
#119 = ORIENTED_EDGE ( 'NONE', *, *, #108, .F. ) ;
#120 = DIRECTION ( 'NONE',  ( -0.7071067811865474600, 0.7071067811865474600, 0.0000000000000000000 ) ) ;
#121 = FACE_OUTER_BOUND ( 'NONE', #296, .T. ) ;
#122 = EDGE_CURVE ( 'NONE', #223, #245, #275, .T. ) ;
#123 = CARTESIAN_POINT ( 'NONE',  ( -9.199760500100243800E-016, -9.199760500100243800E-016, 5.000000000000000000 ) ) ;
#124 = APPROVAL_DATE_TIME ( #133, #32 ) ;
#125 = CC_DESIGN_PERSON_AND_ORGANIZATION_ASSIGNMENT ( #229, #184, ( #31 ) ) ;
#126 = DIRECTION ( 'NONE',  ( 1.000000000000000000, 0.0000000000000000000, 0.0000000000000000000 ) ) ;
#127 = ADVANCED_FACE ( 'NONE', ( #258 ), #276, .F. ) ;
#128 = ORIENTED_EDGE ( 'NONE', *, *, #66, .T. ) ;
#129 = APPROVAL_STATUS ( 'not_yet_approved' ) ;
#130 = EDGE_LOOP ( 'NONE', ( #248, #166, #236, #295 ) ) ;
#131 = AXIS2_PLACEMENT_3D ( 'NONE', #75, #264, #301 ) ;
#132 = COORDINATED_UNIVERSAL_TIME_OFFSET ( 5, 0, .BEHIND. ) ;
#133 = DATE_AND_TIME ( #109, #47 ) ;
#134 = UNCERTAINTY_MEASURE_WITH_UNIT (LENGTH_MEASURE( 1.000000000000000100E-005 ), #203, 'distance_accuracy_value', 'NONE');
#135 = DIRECTION ( 'NONE',  ( -0.0000000000000000000, -0.0000000000000000000, -1.000000000000000000 ) ) ;
#136 = DATE_TIME_ROLE ( 'creation_date' ) ;
#137 = EDGE_LOOP ( 'NONE', ( #179, #190, #86, #74 ) ) ;
#138 = LOCAL_TIME ( 12, 33, 51.00000000000000000, #144 ) ;
#139 = PERSON_AND_ORGANIZATION_ROLE ( 'creator' ) ;
#140 = EDGE_CURVE ( 'NONE', #320, #309, #90, .T. ) ;
#141 = DIRECTION ( 'NONE',  ( 0.0000000000000000000, -0.0000000000000000000, 1.000000000000000000 ) ) ;
#142 = DIRECTION ( 'NONE',  ( 0.0000000000000000000, 1.000000000000000000, -0.0000000000000000000 ) ) ;
#143 = LINE ( 'NONE', #115, #148 ) ;
#144 = COORDINATED_UNIVERSAL_TIME_OFFSET ( 5, 0, .BEHIND. ) ;
#145 = FACE_OUTER_BOUND ( 'NONE', #20, .T. ) ;
#146 = DIRECTION ( 'NONE',  ( 0.7071067811865475700, 0.7071067811865475700, -0.0000000000000000000 ) ) ;
#147 = PRODUCT_DEFINITION ( 'UNKNOWN', '', #225, #291 ) ;
#148 = VECTOR ( 'NONE', #142, 1000.000000000000000 ) ;
#149 = ORIENTED_EDGE ( 'NONE', *, *, #49, .F. ) ;
#150 = LOCAL_TIME ( 12, 33, 51.00000000000000000, #81 ) ;
#151 = CLOSED_SHELL ( 'NONE', ( #228, #182, #82, #55, #283 ) ) ;
#152 = DIRECTION ( 'NONE',  ( 0.0000000000000000000, 0.0000000000000000000, 1.000000000000000000 ) ) ;
#153 = VERTEX_POINT ( 'NONE', #161 ) ;
#154 = PERSON ( 'UNSPECIFIED', 'UNSPECIFIED', 'UNSPECIFIED', ('UNSPECIFIED'), ('UNSPECIFIED'), ('UNSPECIFIED') ) ;
#155 = DIRECTION ( 'NONE',  ( 1.000000000000000000, 0.0000000000000000000, 0.0000000000000000000 ) ) ;
#156 = ADVANCED_FACE ( 'NONE', ( #170 ), #263, .T. ) ;
#157 = EDGE_CURVE ( 'NONE', #309, #53, #221, .T. ) ;
#158 = DIRECTION ( 'NONE',  ( 0.0000000000000000000, 1.000000000000000000, -0.0000000000000000000 ) ) ;
#159 = ORIENTED_EDGE ( 'NONE', *, *, #157, .T. ) ;
#160 = DIRECTION ( 'NONE',  ( 1.000000000000000000, 0.0000000000000000000, 0.0000000000000000000 ) ) ;
#161 = CARTESIAN_POINT ( 'NONE',  ( -5.000000000000000900, -5.000000000000000900, 5.000000000000000000 ) ) ;
#162 = APPROVAL ( #188, 'UNSPECIFIED' ) ;
#163 = CALENDAR_DATE ( 2017, 26, 4 ) ;
#164 = CARTESIAN_POINT ( 'NONE',  ( 4.999999999999999100, 0.0000000000000000000, 5.000000000000000000 ) ) ;
#165 = DIRECTION ( 'NONE',  ( -0.0000000000000000000, 0.0000000000000000000, 1.000000000000000000 ) ) ;
#166 = ORIENTED_EDGE ( 'NONE', *, *, #257, .F. ) ;
#167 = VECTOR ( 'NONE', #173, 1000.000000000000000 ) ;
#168 = PLANE ( 'NONE',  #40 ) ;
#169 = AXIS2_PLACEMENT_3D ( 'NONE', #172, #180, #289 ) ;
#170 = FACE_OUTER_BOUND ( 'NONE', #212, .T. ) ;
#171 = VERTEX_POINT ( 'NONE', #211 ) ;
#172 = CARTESIAN_POINT ( 'NONE',  ( 0.0000000000000000000, 0.0000000000000000000, -5.000000000000000000 ) ) ;
#173 = DIRECTION ( 'NONE',  ( -0.0000000000000000000, -0.0000000000000000000, -1.000000000000000000 ) ) ;
#174 = DIRECTION ( 'NONE',  ( 0.0000000000000000000, -0.0000000000000000000, 1.000000000000000000 ) ) ;
#175 = APPLICATION_PROTOCOL_DEFINITION ( 'international standard', 'config_control_design', 1994, #52 ) ;
#176 = EDGE_CURVE ( 'NONE', #88, #53, #302, .T. ) ;
#177 = CARTESIAN_POINT ( 'NONE',  ( -9.199760500100243800E-016, -9.199760500100243800E-016, 5.000000000000000000 ) ) ;
#178 = ORIENTED_EDGE ( 'NONE', *, *, #277, .F. ) ;
#179 = ORIENTED_EDGE ( 'NONE', *, *, #176, .T. ) ;
#180 = DIRECTION ( 'NONE',  ( -0.0000000000000000000, 0.0000000000000000000, 1.000000000000000000 ) ) ;
#181 = CC_DESIGN_APPROVAL ( #162, ( #147 ) ) ;
#182 = ADVANCED_FACE ( 'NONE', ( #305 ), #285, .F. ) ;
#183 = LINE ( 'NONE', #44, #312 ) ;
#184 = PERSON_AND_ORGANIZATION_ROLE ( 'design_owner' ) ;
#185 = ORIENTED_EDGE ( 'NONE', *, *, #176, .F. ) ;
#186 = VECTOR ( 'NONE', #135, 1000.000000000000000 ) ;
#187 = DATE_TIME_ROLE ( 'classification_date' ) ;
#188 = APPROVAL_STATUS ( 'not_yet_approved' ) ;
#189 = PLANE ( 'NONE',  #8 ) ;
#190 = ORIENTED_EDGE ( 'NONE', *, *, #157, .F. ) ;
#191 = CARTESIAN_POINT ( 'NONE',  ( 4.999999999999999100, -5.000000000000000900, -5.000000000000000000 ) ) ;
#192 = LOCAL_TIME ( 12, 33, 51.00000000000000000, #14 ) ;
#193 = VECTOR ( 'NONE', #217, 1000.000000000000000 ) ;
#194 = EDGE_CURVE ( 'NONE', #153, #223, #143, .T. ) ;
#195 = PERSON_AND_ORGANIZATION_ROLE ( 'creator' ) ;
#196 = CC_DESIGN_PERSON_AND_ORGANIZATION_ASSIGNMENT ( #209, #139, ( #147 ) ) ;
#197 = ORIENTED_EDGE ( 'NONE', *, *, #238, .T. ) ;
#198 = PRODUCT_DEFINITION_SHAPE ( 'NONE', 'NONE',  #147 ) ;
#199 = PERSON_AND_ORGANIZATION ( #154, #207 ) ;
#200 = VECTOR ( 'NONE', #303, 1000.000000000000100 ) ;
#201 = AXIS2_PLACEMENT_3D ( 'NONE', #59, #91, #141 ) ;
#202 = DIRECTION ( 'NONE',  ( -0.0000000000000000000, -0.0000000000000000000, -1.000000000000000000 ) ) ;
#203 =( LENGTH_UNIT ( ) NAMED_UNIT ( * ) SI_UNIT ( .MILLI., .METRE. ) );
#204 = VECTOR ( 'NONE', #98, 1000.000000000000000 ) ;
#205 = EDGE_CURVE ( 'NONE', #292, #270, #94, .T. ) ;
#206 = CLOSED_SHELL ( 'NONE', ( #255, #25, #156, #307, #127 ) ) ;
#207 = ORGANIZATION ( 'UNSPECIFIED', 'UNSPECIFIED', '' ) ;
#208 = CC_DESIGN_DATE_AND_TIME_ASSIGNMENT ( #26, #136, ( #147 ) ) ;
#209 = PERSON_AND_ORGANIZATION ( #154, #207 ) ;
#210 = APPROVAL_ROLE ( '' ) ;
#211 = CARTESIAN_POINT ( 'NONE',  ( -5.000000000000000900, 4.999999999999999100, -5.000000000000000000 ) ) ;
#212 = EDGE_LOOP ( 'NONE', ( #119, #102, #242, #159 ) ) ;
#213 = VECTOR ( 'NONE', #235, 1000.000000000000000 ) ;
#214 = SHAPE_DEFINITION_REPRESENTATION ( #198, #318 ) ;
#215 = CARTESIAN_POINT ( 'NONE',  ( -5.000000000000000900, 0.0000000000000000000, -5.000000000000000000 ) ) ;
#216 = LOCAL_TIME ( 12, 33, 51.00000000000000000, #132 ) ;
#217 = DIRECTION ( 'NONE',  ( 0.0000000000000000000, 1.000000000000000000, -0.0000000000000000000 ) ) ;
#218 = ORIENTED_EDGE ( 'NONE', *, *, #194, .T. ) ;
#219 = EDGE_CURVE ( 'NONE', #292, #320, #278, .T. ) ;
#220 = DIRECTION ( 'NONE',  ( 1.000000000000000000, 0.0000000000000000000, 0.0000000000000000000 ) ) ;
#221 = LINE ( 'NONE', #106, #45 ) ;
#222 = LINE ( 'NONE', #67, #186 ) ;
#223 = VERTEX_POINT ( 'NONE', #30 ) ;
#224 = DIRECTION ( 'NONE',  ( -0.0000000000000000000, 0.0000000000000000000, 1.000000000000000000 ) ) ;
#225 = PRODUCT_DEFINITION_FORMATION_WITH_SPECIFIED_SOURCE ( 'ANY', '', #31, .NOT_KNOWN. ) ;
#226 = ORIENTED_EDGE ( 'NONE', *, *, #108, .T. ) ;
#227 = MECHANICAL_CONTEXT ( 'NONE', #300, 'mechanical' ) ;
#228 = ADVANCED_FACE ( 'NONE', ( #315 ), #38, .T. ) ;
#229 = PERSON_AND_ORGANIZATION ( #154, #207 ) ;
#230 = EDGE_LOOP ( 'NONE', ( #232, #268, #149, #23 ) ) ;
#231 = DIRECTION ( 'NONE',  ( -1.000000000000000000, 0.0000000000000000000, 0.0000000000000000000 ) ) ;
#232 = ORIENTED_EDGE ( 'NONE', *, *, #28, .T. ) ;
#233 = LINE ( 'NONE', #29, #167 ) ;
#234 = AXIS2_PLACEMENT_3D ( 'NONE', #83, #247, #174 ) ;
#235 = DIRECTION ( 'NONE',  ( -0.0000000000000000000, -0.0000000000000000000, -1.000000000000000000 ) ) ;
#236 = ORIENTED_EDGE ( 'NONE', *, *, #219, .F. ) ;
#237 = CALENDAR_DATE ( 2017, 26, 4 ) ;
#238 = EDGE_CURVE ( 'NONE', #245, #34, #249, .T. ) ;
#239 = ORIENTED_EDGE ( 'NONE', *, *, #219, .T. ) ;
#240 = DIRECTION ( 'NONE',  ( 0.0000000000000000000, 0.0000000000000000000, 1.000000000000000000 ) ) ;
#241 = CARTESIAN_POINT ( 'NONE',  ( 0.0000000000000000000, 0.0000000000000000000, 5.000000000000000000 ) ) ;
#242 = ORIENTED_EDGE ( 'NONE', *, *, #274, .T. ) ;
#243 = LINE ( 'NONE', #99, #57 ) ;
#244 = APPLICATION_PROTOCOL_DEFINITION ( 'international standard', 'config_control_design', 1994, #300 ) ;
#245 = VERTEX_POINT ( 'NONE', #84 ) ;
#246 = APPROVAL ( #288, 'UNSPECIFIED' ) ;
#247 = DIRECTION ( 'NONE',  ( 0.0000000000000000000, 1.000000000000000000, 0.0000000000000000000 ) ) ;
#248 = ORIENTED_EDGE ( 'NONE', *, *, #277, .T. ) ;
#249 = LINE ( 'NONE', #13, #213 ) ;
#250 = ORIENTED_EDGE ( 'NONE', *, *, #122, .F. ) ;
#251 = VERTEX_POINT ( 'NONE', #273 ) ;
#252 = PERSON_AND_ORGANIZATION ( #154, #207 ) ;
#253 = EDGE_CURVE ( 'NONE', #223, #171, #4, .T. ) ;
#254 = PERSON_AND_ORGANIZATION ( #154, #207 ) ;
#255 = ADVANCED_FACE ( 'NONE', ( #7 ), #58, .F. ) ;
#256 = CARTESIAN_POINT ( 'NONE',  ( 0.0000000000000000000, 4.999999999999999100, 5.000000000000000000 ) ) ;
#257 = EDGE_CURVE ( 'NONE', #320, #88, #233, .T. ) ;
#258 = FACE_OUTER_BOUND ( 'NONE', #72, .T. ) ;
#259 = DIRECTION ( 'NONE',  ( -1.000000000000000000, 0.0000000000000000000, 0.0000000000000000000 ) ) ;
#260 = VECTOR ( 'NONE', #126, 1000.000000000000000 ) ;
#261 = EDGE_LOOP ( 'NONE', ( #107, #92, #218, #19 ) ) ;
#262 = CC_DESIGN_APPROVAL ( #246, ( #225 ) ) ;
#263 = PLANE ( 'NONE',  #201 ) ;
#264 = DIRECTION ( 'NONE',  ( 0.7071067811865475700, 0.7071067811865475700, -0.0000000000000000000 ) ) ;
#265 = CARTESIAN_POINT ( 'NONE',  ( 4.999999999999999100, -5.000000000000000900, 5.000000000000000000 ) ) ;
#266 = ORIENTED_EDGE ( 'NONE', *, *, #28, .F. ) ;
#267 = CARTESIAN_POINT ( 'NONE',  ( -5.000000000000000900, 0.0000000000000000000, 5.000000000000000000 ) ) ;
#268 = ORIENTED_EDGE ( 'NONE', *, *, #238, .F. ) ;
#269 = CARTESIAN_POINT ( 'NONE',  ( 0.0000000000000000000, 0.0000000000000000000, -5.000000000000000000 ) ) ;
#270 = VERTEX_POINT ( 'NONE', #33 ) ;
#271 = DATE_AND_TIME ( #163, #192 ) ;
#272 = AXIS2_PLACEMENT_3D ( 'NONE', #267, #231, #152 ) ;
#273 = CARTESIAN_POINT ( 'NONE',  ( -5.000000000000000900, -5.000000000000000900, -5.000000000000000000 ) ) ;
#274 = EDGE_CURVE ( 'NONE', #292, #309, #317, .T. ) ;
#275 = LINE ( 'NONE', #123, #200 ) ;
#276 = PLANE ( 'NONE',  #169 ) ;
#277 = EDGE_CURVE ( 'NONE', #270, #88, #80, .T. ) ;
#278 = LINE ( 'NONE', #3, #319 ) ;
#279 = EDGE_LOOP ( 'NONE', ( #239, #18, #117 ) ) ;
#280 = DIRECTION ( 'NONE',  ( 1.000000000000000000, 0.0000000000000000000, 0.0000000000000000000 ) ) ;
#281 = CC_DESIGN_PERSON_AND_ORGANIZATION_ASSIGNMENT ( #95, #195, ( #225 ) ) ;
#282 = CALENDAR_DATE ( 2017, 26, 4 ) ;
#283 = ADVANCED_FACE ( 'NONE', ( #145 ), #189, .F. ) ;
#284 = DIRECTION ( 'NONE',  ( 0.7071067811865474600, -0.7071067811865474600, 0.0000000000000000000 ) ) ;
#285 = PLANE ( 'NONE',  #234 ) ;
#286 = DIRECTION ( 'NONE',  ( 0.7071067811865474600, -0.7071067811865474600, 0.0000000000000000000 ) ) ;
#287 = EDGE_CURVE ( 'NONE', #251, #171, #42, .T. ) ;
#288 = APPROVAL_STATUS ( 'not_yet_approved' ) ;
#289 = DIRECTION ( 'NONE',  ( 1.000000000000000000, 0.0000000000000000000, 0.0000000000000000000 ) ) ;
#290 = ORIENTED_EDGE ( 'NONE', *, *, #253, .F. ) ;
#291 = DESIGN_CONTEXT ( 'detailed design', #52, 'design' ) ;
#292 = VERTEX_POINT ( 'NONE', #111 ) ;
#293 = EDGE_CURVE ( 'NONE', #153, #251, #222, .T. ) ;
#294 =( NAMED_UNIT ( * ) PLANE_ANGLE_UNIT ( ) SI_UNIT ( $, .RADIAN. ) );
#295 = ORIENTED_EDGE ( 'NONE', *, *, #205, .T. ) ;
#296 = EDGE_LOOP ( 'NONE', ( #68, #10, #250 ) ) ;
#297 = VECTOR ( 'NONE', #6, 1000.000000000000100 ) ;
#298 = CARTESIAN_POINT ( 'NONE',  ( 4.999999999999999100, 0.0000000000000000000, -5.000000000000000000 ) ) ;
#299 = CC_DESIGN_PERSON_AND_ORGANIZATION_ASSIGNMENT ( #101, #43, ( #225 ) ) ;
#300 = APPLICATION_CONTEXT ( 'configuration controlled 3d designs of mechanical parts and assemblies' ) ;
#301 = DIRECTION ( 'NONE',  ( -0.7071067811865474600, 0.7071067811865474600, 0.0000000000000000000 ) ) ;
#302 = LINE ( 'NONE', #298, #70 ) ;
#303 = DIRECTION ( 'NONE',  ( 0.7071067811865474600, -0.7071067811865474600, 0.0000000000000000000 ) ) ;
#304 = AXIS2_PLACEMENT_3D ( 'NONE', #177, #146, #120 ) ;
#305 = FACE_OUTER_BOUND ( 'NONE', #230, .T. ) ;
#306 = DIRECTION ( 'NONE',  ( -0.0000000000000000000, 0.0000000000000000000, 1.000000000000000000 ) ) ;
#307 = ADVANCED_FACE ( 'NONE', ( #22 ), #168, .T. ) ;
#308 = DATE_AND_TIME ( #237, #138 ) ;
#309 = VERTEX_POINT ( 'NONE', #46 ) ;
#310 = AXIS2_PLACEMENT_3D ( 'NONE', #164, #259, #41 ) ;
#311 = CARTESIAN_POINT ( 'NONE',  ( 4.999999999999999100, 4.999999999999999100, -5.000000000000000000 ) ) ;
#312 = VECTOR ( 'NONE', #280, 1000.000000000000000 ) ;
#313 = CARTESIAN_POINT ( 'NONE',  ( 0.0000000000000000000, 0.0000000000000000000, 0.0000000000000000000 ) ) ;
#314 = SECURITY_CLASSIFICATION ( '', '', #16 ) ;
#315 = FACE_OUTER_BOUND ( 'NONE', #261, .T. ) ;
#316 = CARTESIAN_POINT ( 'NONE',  ( -5.000000000000000900, 4.999999999999999100, 5.000000000000000000 ) ) ;
#317 = LINE ( 'NONE', #256, #260 ) ;
#318 = ADVANCED_BREP_SHAPE_REPRESENTATION ( 'Web Model 47777_47777', ( #15, #62, #112 ), #21 ) ;
#319 = VECTOR ( 'NONE', #286, 1000.000000000000100 ) ;
#320 = VERTEX_POINT ( 'NONE', #265 ) ;
#321 = VECTOR ( 'NONE', #65, 1000.000000000000000 ) ;
ENDSEC;
END-ISO-10303-21;
