ISO-10303-21;
HEADER;
FILE_DESCRIPTION (( 'STEP AP214' ),
    '1' );
FILE_NAME ('4503-E0W.STEP',
    '2009-12-21T17:06:55',
    ( ' ' ),
    ( ' ' ),
    'SwSTEP 2.0',
    'SolidWorks 2009',
    '' );
FILE_SCHEMA (( 'AUTOMOTIVE_DESIGN' ));
ENDSEC;

DATA;
#1 = ORIENTED_EDGE ( 'NONE', *, *, #51, .T. ) ;
#2 = ORIENTED_EDGE ( 'NONE', *, *, #8, .F. ) ;
#3 = VERTEX_POINT ( 'NONE', #93 ) ;
#4 = ORIENTED_EDGE ( 'NONE', *, *, #53, .F. ) ;
#5 = EDGE_CURVE ( 'NONE', #3, #21, #89, .T. ) ;
#6 = ORIENTED_EDGE ( 'NONE', *, *, #5, .T. ) ;
#7 = ORIENTED_EDGE ( 'NONE', *, *, #8, .T. ) ;
#8 = EDGE_CURVE ( 'NONE', #15, #3, #66, .T. ) ;
#9 = ORIENTED_EDGE ( 'NONE', *, *, #17, .F. ) ;
#10 = EDGE_LOOP ( 'NONE', ( #7, #6, #18, #11, #9 ) ) ;
#11 = ORIENTED_EDGE ( 'NONE', *, *, #13, .F. ) ;
#12 = VERTEX_POINT ( 'NONE', #94 ) ;
#13 = EDGE_CURVE ( 'NONE', #12, #19, #69, .T. ) ;
#14 = MANIFOLD_SOLID_BREP ( 'NONE', #46 ) ;
#15 = VERTEX_POINT ( 'NONE', #65 ) ;
#16 = EDGE_CURVE ( 'NONE', #19, #21, #76, .T. ) ;
#17 = EDGE_CURVE ( 'NONE', #15, #12, #103, .T. ) ;
#18 = ORIENTED_EDGE ( 'NONE', *, *, #16, .F. ) ;
#19 = VERTEX_POINT ( 'NONE', #110 ) ;
#20 = ADVANCED_FACE ( 'NONE', ( #114 ), #151, .T. ) ;
#21 = VERTEX_POINT ( 'NONE', #154 ) ;
#22 =( GEOMETRIC_REPRESENTATION_CONTEXT ( 3 ) GLOBAL_UNCERTAINTY_ASSIGNED_CONTEXT ( ( #145 ) ) GLOBAL_UNIT_ASSIGNED_CONTEXT ( ( #161, #155, #160 ) ) REPRESENTATION_CONTEXT ( 'NONE', 'WORKASPACE' ) );
#23 = DIRECTION ( 'NONE',  ( 1.000000000000000000, 0.0000000000000000000, 0.0000000000000000000 ) ) ;
#24 = PRESENTATION_STYLE_ASSIGNMENT (( #29 ) ) ;
#25 = STYLED_ITEM ( 'NONE', ( #24 ), #55 ) ;
#26 = MECHANICAL_DESIGN_GEOMETRIC_PRESENTATION_REPRESENTATION (  '', ( #25 ), #216 ) ;
#27 =( LENGTH_UNIT ( ) NAMED_UNIT ( * ) SI_UNIT ( .MILLI., .METRE. ) );
#28 = PRESENTATION_LAYER_ASSIGNMENT (  '', '', ( #25 ) ) ;
#29 = SURFACE_STYLE_USAGE ( .BOTH. , #183 ) ;
#30 = ORIENTED_EDGE ( 'NONE', *, *, #33, .F. ) ;
#31 = ORIENTED_EDGE ( 'NONE', *, *, #56, .F. ) ;
#32 = EDGE_LOOP ( 'NONE', ( #30, #52, #41, #42 ) ) ;
#33 = EDGE_CURVE ( 'NONE', #47, #36, #129, .T. ) ;
#34 = ORIENTED_EDGE ( 'NONE', *, *, #33, .T. ) ;
#35 = ADVANCED_FACE ( 'NONE', ( #150 ), #128, .T. ) ;
#36 = VERTEX_POINT ( 'NONE', #146 ) ;
#37 = ADVANCED_FACE ( 'NONE', ( #142 ), #170, .T. ) ;
#38 = ORIENTED_EDGE ( 'NONE', *, *, #53, .T. ) ;
#39 = EDGE_LOOP ( 'NONE', ( #44, #1, #43, #49, #4 ) ) ;
#40 = EDGE_CURVE ( 'NONE', #47, #12, #168, .T. ) ;
#41 = ORIENTED_EDGE ( 'NONE', *, *, #13, .T. ) ;
#42 = ORIENTED_EDGE ( 'NONE', *, *, #56, .T. ) ;
#43 = ORIENTED_EDGE ( 'NONE', *, *, #17, .T. ) ;
#44 = ORIENTED_EDGE ( 'NONE', *, *, #5, .F. ) ;
#45 = EDGE_LOOP ( 'NONE', ( #2, #50 ) ) ;
#46 = CLOSED_SHELL ( 'NONE', ( #20, #35, #55, #37, #48 ) ) ;
#47 = VERTEX_POINT ( 'NONE', #199 ) ;
#48 = ADVANCED_FACE ( 'NONE', ( #190 ), #172, .F. ) ;
#49 = ORIENTED_EDGE ( 'NONE', *, *, #40, .F. ) ;
#50 = ORIENTED_EDGE ( 'NONE', *, *, #51, .F. ) ;
#51 = EDGE_CURVE ( 'NONE', #3, #15, #210, .T. ) ;
#52 = ORIENTED_EDGE ( 'NONE', *, *, #40, .T. ) ;
#53 = EDGE_CURVE ( 'NONE', #21, #47, #166, .T. ) ;
#54 = ORIENTED_EDGE ( 'NONE', *, *, #16, .T. ) ;
#55 = ADVANCED_FACE ( 'NONE', ( #167 ), #221, .T. ) ;
#56 = EDGE_CURVE ( 'NONE', #19, #36, #225, .T. ) ;
#57 = EDGE_LOOP ( 'NONE', ( #54, #38, #34, #31 ) ) ;
#58 = UNCERTAINTY_MEASURE_WITH_UNIT (LENGTH_MEASURE( 1.000000000000000100E-005 ), #223, 'distance_accuracy_value', 'NONE');
#59 = COLOUR_RGB ( '',0.7960784313725489700, 0.8235294117647058400, 0.9372549019607843100 ) ;
#60 = DIRECTION ( 'NONE',  ( 1.000000000000000000, 0.0000000000000000000, 0.0000000000000000000 ) ) ;
#61 = DIRECTION ( 'NONE',  ( -0.0000000000000000000, -0.0000000000000000000, 1.000000000000000000 ) ) ;
#62 = CARTESIAN_POINT ( 'NONE',  ( 0.0000000000000000000, 0.0000000000000000000, 0.8416735779942569100 ) ) ;
#63 = AXIS2_PLACEMENT_3D ( 'NONE', #62, #61, #60 ) ;
#64 = DIRECTION ( 'NONE',  ( -0.0000000000000000000, -0.0000000000000000000, 1.000000000000000000 ) ) ;
#65 = CARTESIAN_POINT ( 'NONE',  ( 12.69999999999999900, 0.0000000000000000000, -1.154999999999999800 ) ) ;
#66 = CIRCLE ( 'NONE', #70, 12.69999999999999900 ) ;
#67 = VECTOR ( 'NONE', #64, 1000.000000000000000 ) ;
#68 = DIRECTION ( 'NONE',  ( 1.000000000000000000, 0.0000000000000000000, 0.0000000000000000000 ) ) ;
#69 = CIRCLE ( 'NONE', #63, 12.69999999999999900 ) ;
#70 = AXIS2_PLACEMENT_3D ( 'NONE', #88, #77, #68 ) ;
#71 =( LENGTH_UNIT ( ) NAMED_UNIT ( * ) SI_UNIT ( .MILLI., .METRE. ) );
#72 = MECHANICAL_DESIGN_GEOMETRIC_PRESENTATION_REPRESENTATION (  '', ( #81 ), #90 ) ;
#73 = DIRECTION ( 'NONE',  ( -0.0000000000000000000, -0.0000000000000000000, 1.000000000000000000 ) ) ;
#74 = CARTESIAN_POINT ( 'NONE',  ( 0.0000000000000000000, 0.0000000000000000000, 0.8416735779942569100 ) ) ;
#75 = AXIS2_PLACEMENT_3D ( 'NONE', #74, #73, #23 ) ;
#76 = CIRCLE ( 'NONE', #75, 12.69999999999999900 ) ;
#77 = DIRECTION ( 'NONE',  ( -0.0000000000000000000, -0.0000000000000000000, 1.000000000000000000 ) ) ;
#78 = UNCERTAINTY_MEASURE_WITH_UNIT (LENGTH_MEASURE( 1.000000000000000100E-005 ), #71, 'distance_accuracy_value', 'NONE');
#79 = CARTESIAN_POINT ( 'NONE',  ( -12.69999999999999900, 1.555250069354419100E-015, 4.308132045400366600 ) ) ;
#80 = PRESENTATION_LAYER_ASSIGNMENT (  '', '', ( #81 ) ) ;
#81 = STYLED_ITEM ( 'NONE', ( #82 ), #14 ) ;
#82 = PRESENTATION_STYLE_ASSIGNMENT (( #83 ) ) ;
#83 = SURFACE_STYLE_USAGE ( .BOTH. , #84 ) ;
#84 = SURFACE_SIDE_STYLE ('',( #85 ) ) ;
#85 = SURFACE_STYLE_FILL_AREA ( #86 ) ;
#86 = FILL_AREA_STYLE ('',( #87 ) ) ;
#87 = FILL_AREA_STYLE_COLOUR ( '', #59 ) ;
#88 = CARTESIAN_POINT ( 'NONE',  ( 0.0000000000000000000, 0.0000000000000000000, -1.154999999999999800 ) ) ;
#89 = LINE ( 'NONE', #79, #67 ) ;
#90 =( GEOMETRIC_REPRESENTATION_CONTEXT ( 3 ) GLOBAL_UNCERTAINTY_ASSIGNED_CONTEXT ( ( #78 ) ) GLOBAL_UNIT_ASSIGNED_CONTEXT ( ( #71, #92, #91 ) ) REPRESENTATION_CONTEXT ( 'NONE', 'WORKASPACE' ) );
#91 =( NAMED_UNIT ( * ) SI_UNIT ( $, .STERADIAN. ) SOLID_ANGLE_UNIT ( ) );
#92 =( NAMED_UNIT ( * ) PLANE_ANGLE_UNIT ( ) SI_UNIT ( $, .RADIAN. ) );
#93 = CARTESIAN_POINT ( 'NONE',  ( -12.69999999999999900, 1.555250069354419100E-015, -1.154999999999999800 ) ) ;
#94 = CARTESIAN_POINT ( 'NONE',  ( 12.69999999999999900, 0.0000000000000000000, 0.8416735779942569100 ) ) ;
#95 =( GEOMETRIC_REPRESENTATION_CONTEXT ( 3 ) GLOBAL_UNCERTAINTY_ASSIGNED_CONTEXT ( ( #99 ) ) GLOBAL_UNIT_ASSIGNED_CONTEXT ( ( #102, #111, #115 ) ) REPRESENTATION_CONTEXT ( 'NONE', 'WORKASPACE' ) );
#96 = SURFACE_SIDE_STYLE ('',( #97 ) ) ;
#97 = SURFACE_STYLE_FILL_AREA ( #98 ) ;
#98 = FILL_AREA_STYLE ('',( #112 ) ) ;
#99 = UNCERTAINTY_MEASURE_WITH_UNIT (LENGTH_MEASURE( 1.000000000000000100E-005 ), #102, 'distance_accuracy_value', 'NONE');
#100 = MECHANICAL_DESIGN_GEOMETRIC_PRESENTATION_REPRESENTATION (  '', ( #104 ), #95 ) ;
#101 = PRESENTATION_LAYER_ASSIGNMENT (  '', '', ( #104 ) ) ;
#102 =( LENGTH_UNIT ( ) NAMED_UNIT ( * ) SI_UNIT ( .MILLI., .METRE. ) );
#103 = LINE ( 'NONE', #109, #108 ) ;
#104 = STYLED_ITEM ( 'NONE', ( #105 ), #20 ) ;
#105 = PRESENTATION_STYLE_ASSIGNMENT (( #106 ) ) ;
#106 = SURFACE_STYLE_USAGE ( .BOTH. , #96 ) ;
#107 = DIRECTION ( 'NONE',  ( -0.0000000000000000000, -0.0000000000000000000, 1.000000000000000000 ) ) ;
#108 = VECTOR ( 'NONE', #107, 1000.000000000000000 ) ;
#109 = CARTESIAN_POINT ( 'NONE',  ( 12.69999999999999900, 0.0000000000000000000, 4.308132045400366600 ) ) ;
#110 = CARTESIAN_POINT ( 'NONE',  ( 0.0000000000000000000, 12.70000000000016300, 0.8416735779942538000 ) ) ;
#111 =( NAMED_UNIT ( * ) PLANE_ANGLE_UNIT ( ) SI_UNIT ( $, .RADIAN. ) );
#112 = FILL_AREA_STYLE_COLOUR ( '', #113 ) ;
#113 = COLOUR_RGB ( '',0.9568627450980391500, 0.9490196078431372100, 0.9607843137254902200 ) ;
#114 = FACE_OUTER_BOUND ( 'NONE', #10, .T. ) ;
#115 =( NAMED_UNIT ( * ) SI_UNIT ( $, .STERADIAN. ) SOLID_ANGLE_UNIT ( ) );
#116 = SURFACE_STYLE_USAGE ( .BOTH. , #117 ) ;
#117 = SURFACE_SIDE_STYLE ('',( #118 ) ) ;
#118 = SURFACE_STYLE_FILL_AREA ( #119 ) ;
#119 = FILL_AREA_STYLE ('',( #140 ) ) ;
#120 = AXIS2_PLACEMENT_3D ( 'NONE', #148, #127, #147 ) ;
#121 = FILL_AREA_STYLE_COLOUR ( '', #122 ) ;
#122 = COLOUR_RGB ( '',0.9568627450980391500, 0.9490196078431372100, 0.9607843137254902200 ) ;
#123 =( NAMED_UNIT ( * ) PLANE_ANGLE_UNIT ( ) SI_UNIT ( $, .RADIAN. ) );
#124 = DIRECTION ( 'NONE',  ( 0.0000000000000000000, 1.000000000000000000, 0.0000000000000000000 ) ) ;
#125 = DIRECTION ( 'NONE',  ( -1.000000000000000000, 0.0000000000000000000, 0.0000000000000000000 ) ) ;
#126 =( LENGTH_UNIT ( ) NAMED_UNIT ( * ) SI_UNIT ( .MILLI., .METRE. ) );
#127 = DIRECTION ( 'NONE',  ( -1.000000000000000000, 1.224606353822377300E-016, 0.0000000000000000000 ) ) ;
#128 = SPHERICAL_SURFACE ( 'NONE', #153, 257.5400000000000200 ) ;
#129 = CIRCLE ( 'NONE', #120, 257.5400000000000200 ) ;
#130 = SURFACE_STYLE_USAGE ( .BOTH. , #131 ) ;
#131 = SURFACE_SIDE_STYLE ('',( #156 ) ) ;
#132 = PRESENTATION_STYLE_ASSIGNMENT (( #130 ) ) ;
#133 = STYLED_ITEM ( 'NONE', ( #132 ), #35 ) ;
#134 = FILL_AREA_STYLE ('',( #121 ) ) ;
#135 =( GEOMETRIC_REPRESENTATION_CONTEXT ( 3 ) GLOBAL_UNCERTAINTY_ASSIGNED_CONTEXT ( ( #136 ) ) GLOBAL_UNIT_ASSIGNED_CONTEXT ( ( #126, #123, #149 ) ) REPRESENTATION_CONTEXT ( 'NONE', 'WORKASPACE' ) );
#136 = UNCERTAINTY_MEASURE_WITH_UNIT (LENGTH_MEASURE( 1.000000000000000100E-005 ), #126, 'distance_accuracy_value', 'NONE');
#137 = PRESENTATION_LAYER_ASSIGNMENT (  '', '', ( #138 ) ) ;
#138 = STYLED_ITEM ( 'NONE', ( #139 ), #37 ) ;
#139 = PRESENTATION_STYLE_ASSIGNMENT (( #116 ) ) ;
#140 = FILL_AREA_STYLE_COLOUR ( '', #141 ) ;
#141 = COLOUR_RGB ( '',0.9568627450980391500, 0.9490196078431372100, 0.9607843137254902200 ) ;
#142 = FACE_OUTER_BOUND ( 'NONE', #39, .T. ) ;
#143 = CARTESIAN_POINT ( 'NONE',  ( 0.0000000000000000000, 0.0000000000000000000, 4.308132045400366600 ) ) ;
#144 = AXIS2_PLACEMENT_3D ( 'NONE', #143, #159, #163 ) ;
#145 = UNCERTAINTY_MEASURE_WITH_UNIT (LENGTH_MEASURE( 1.000000000000000100E-005 ), #161, 'distance_accuracy_value', 'NONE');
#146 = CARTESIAN_POINT ( 'NONE',  ( 0.0000000000000000000, 1.576925601817075500E-014, 1.155000000000017100 ) ) ;
#147 = DIRECTION ( 'NONE',  ( -1.224606353822377300E-016, -1.000000000000000000, 0.0000000000000000000 ) ) ;
#148 = CARTESIAN_POINT ( 'NONE',  ( 0.0000000000000000000, 0.0000000000000000000, -256.3850000000000500 ) ) ;
#149 =( NAMED_UNIT ( * ) SI_UNIT ( $, .STERADIAN. ) SOLID_ANGLE_UNIT ( ) );
#150 = FACE_OUTER_BOUND ( 'NONE', #57, .T. ) ;
#151 = CYLINDRICAL_SURFACE ( 'NONE', #144, 12.69999999999999900 ) ;
#152 = CARTESIAN_POINT ( 'NONE',  ( 0.0000000000000000000, 0.0000000000000000000, -256.3850000000000500 ) ) ;
#153 = AXIS2_PLACEMENT_3D ( 'NONE', #152, #125, #124 ) ;
#154 = CARTESIAN_POINT ( 'NONE',  ( -12.69999999999999900, 1.555250069354419100E-015, 0.8416735779942569100 ) ) ;
#155 =( NAMED_UNIT ( * ) PLANE_ANGLE_UNIT ( ) SI_UNIT ( $, .RADIAN. ) );
#156 = SURFACE_STYLE_FILL_AREA ( #134 ) ;
#157 = MECHANICAL_DESIGN_GEOMETRIC_PRESENTATION_REPRESENTATION (  '', ( #133 ), #135 ) ;
#158 = PRESENTATION_LAYER_ASSIGNMENT (  '', '', ( #133 ) ) ;
#159 = DIRECTION ( 'NONE',  ( -0.0000000000000000000, -0.0000000000000000000, 1.000000000000000000 ) ) ;
#160 =( NAMED_UNIT ( * ) SI_UNIT ( $, .STERADIAN. ) SOLID_ANGLE_UNIT ( ) );
#161 =( LENGTH_UNIT ( ) NAMED_UNIT ( * ) SI_UNIT ( .MILLI., .METRE. ) );
#162 = MECHANICAL_DESIGN_GEOMETRIC_PRESENTATION_REPRESENTATION (  '', ( #138 ), #22 ) ;
#163 = DIRECTION ( 'NONE',  ( 1.000000000000000000, 0.0000000000000000000, 0.0000000000000000000 ) ) ;
#164 = CARTESIAN_POINT ( 'NONE',  ( 0.0000000000000000000, 4.243401159045579000E-016, -1.155000000000000000 ) ) ;
#165 = AXIS2_PLACEMENT_3D ( 'NONE', #211, #189, #188 ) ;
#166 = CIRCLE ( 'NONE', #165, 12.69999999999999900 ) ;
#167 = FACE_OUTER_BOUND ( 'NONE', #32, .T. ) ;
#168 = CIRCLE ( 'NONE', #173, 12.69999999999999900 ) ;
#169 = FILL_AREA_STYLE ('',( #195 ) ) ;
#170 = CYLINDRICAL_SURFACE ( 'NONE', #191, 12.69999999999999900 ) ;
#171 = PRESENTATION_STYLE_ASSIGNMENT (( #192 ) ) ;
#172 = PLANE ( 'NONE',  #198 ) ;
#173 = AXIS2_PLACEMENT_3D ( 'NONE', #174, #208, #176 ) ;
#174 = CARTESIAN_POINT ( 'NONE',  ( 0.0000000000000000000, 0.0000000000000000000, 0.8416735779942569100 ) ) ;
#175 =( LENGTH_UNIT ( ) NAMED_UNIT ( * ) SI_UNIT ( .MILLI., .METRE. ) );
#176 = DIRECTION ( 'NONE',  ( 1.000000000000000000, 0.0000000000000000000, 0.0000000000000000000 ) ) ;
#177 = DIRECTION ( 'NONE',  ( 1.000000000000000000, 0.0000000000000000000, 0.0000000000000000000 ) ) ;
#178 = DIRECTION ( 'NONE',  ( -0.0000000000000000000, -0.0000000000000000000, 1.000000000000000000 ) ) ;
#179 = UNCERTAINTY_MEASURE_WITH_UNIT (LENGTH_MEASURE( 1.000000000000000100E-005 ), #175, 'distance_accuracy_value', 'NONE');
#180 = DIRECTION ( 'NONE',  ( 1.000000000000000000, 0.0000000000000000000, 0.0000000000000000000 ) ) ;
#181 = DIRECTION ( 'NONE',  ( 0.0000000000000000000, -0.0000000000000000000, 1.000000000000000000 ) ) ;
#182 = PRESENTATION_LAYER_ASSIGNMENT (  '', '', ( #201 ) ) ;
#183 = SURFACE_SIDE_STYLE ('',( #184 ) ) ;
#184 = SURFACE_STYLE_FILL_AREA ( #185 ) ;
#185 = FILL_AREA_STYLE ('',( #186 ) ) ;
#186 = FILL_AREA_STYLE_COLOUR ( '', #187 ) ;
#187 = COLOUR_RGB ( '',0.9568627450980391500, 0.9490196078431372100, 0.9607843137254902200 ) ;
#188 = DIRECTION ( 'NONE',  ( 1.000000000000000000, 0.0000000000000000000, 0.0000000000000000000 ) ) ;
#189 = DIRECTION ( 'NONE',  ( -0.0000000000000000000, -0.0000000000000000000, 1.000000000000000000 ) ) ;
#190 = FACE_OUTER_BOUND ( 'NONE', #45, .T. ) ;
#191 = AXIS2_PLACEMENT_3D ( 'NONE', #203, #178, #177 ) ;
#192 = SURFACE_STYLE_USAGE ( .BOTH. , #194 ) ;
#193 =( NAMED_UNIT ( * ) SI_UNIT ( $, .STERADIAN. ) SOLID_ANGLE_UNIT ( ) );
#194 = SURFACE_SIDE_STYLE ('',( #197 ) ) ;
#195 = FILL_AREA_STYLE_COLOUR ( '', #202 ) ;
#196 = MECHANICAL_DESIGN_GEOMETRIC_PRESENTATION_REPRESENTATION (  '', ( #201 ), #200 ) ;
#197 = SURFACE_STYLE_FILL_AREA ( #169 ) ;
#198 = AXIS2_PLACEMENT_3D ( 'NONE', #164, #181, #180 ) ;
#199 = CARTESIAN_POINT ( 'NONE',  ( -1.555250069354439400E-015, -12.70000000000016300, 0.8416735779942538000 ) ) ;
#200 =( GEOMETRIC_REPRESENTATION_CONTEXT ( 3 ) GLOBAL_UNCERTAINTY_ASSIGNED_CONTEXT ( ( #179 ) ) GLOBAL_UNIT_ASSIGNED_CONTEXT ( ( #175, #209, #193 ) ) REPRESENTATION_CONTEXT ( 'NONE', 'WORKASPACE' ) );
#201 = STYLED_ITEM ( 'NONE', ( #171 ), #48 ) ;
#202 = COLOUR_RGB ( '',0.9568627450980391500, 0.9490196078431372100, 0.9607843137254902200 ) ;
#203 = CARTESIAN_POINT ( 'NONE',  ( 0.0000000000000000000, 0.0000000000000000000, 4.308132045400366600 ) ) ;
#204 = DIRECTION ( 'NONE',  ( 1.000000000000000000, 0.0000000000000000000, 0.0000000000000000000 ) ) ;
#205 = DIRECTION ( 'NONE',  ( -0.0000000000000000000, -0.0000000000000000000, 1.000000000000000000 ) ) ;
#206 = CARTESIAN_POINT ( 'NONE',  ( 0.0000000000000000000, 0.0000000000000000000, -1.154999999999999800 ) ) ;
#207 = AXIS2_PLACEMENT_3D ( 'NONE', #206, #205, #204 ) ;
#208 = DIRECTION ( 'NONE',  ( -0.0000000000000000000, -0.0000000000000000000, 1.000000000000000000 ) ) ;
#209 =( NAMED_UNIT ( * ) PLANE_ANGLE_UNIT ( ) SI_UNIT ( $, .RADIAN. ) );
#210 = CIRCLE ( 'NONE', #207, 12.69999999999999900 ) ;
#211 = CARTESIAN_POINT ( 'NONE',  ( 0.0000000000000000000, 0.0000000000000000000, 0.8416735779942569100 ) ) ;
#212 =( NAMED_UNIT ( * ) SI_UNIT ( $, .STERADIAN. ) SOLID_ANGLE_UNIT ( ) );
#213 =( NAMED_UNIT ( * ) PLANE_ANGLE_UNIT ( ) SI_UNIT ( $, .RADIAN. ) );
#214 =( NAMED_UNIT ( * ) PLANE_ANGLE_UNIT ( ) SI_UNIT ( $, .RADIAN. ) );
#215 =( NAMED_UNIT ( * ) SI_UNIT ( $, .STERADIAN. ) SOLID_ANGLE_UNIT ( ) );
#216 =( GEOMETRIC_REPRESENTATION_CONTEXT ( 3 ) GLOBAL_UNCERTAINTY_ASSIGNED_CONTEXT ( ( #218 ) ) GLOBAL_UNIT_ASSIGNED_CONTEXT ( ( #27, #214, #212 ) ) REPRESENTATION_CONTEXT ( 'NONE', 'WORKASPACE' ) );
#217 = CARTESIAN_POINT ( 'NONE',  ( 0.0000000000000000000, 0.0000000000000000000, -256.3850000000000500 ) ) ;
#218 = UNCERTAINTY_MEASURE_WITH_UNIT (LENGTH_MEASURE( 1.000000000000000100E-005 ), #27, 'distance_accuracy_value', 'NONE');
#219 = DIRECTION ( 'NONE',  ( 0.0000000000000000000, 0.0000000000000000000, -1.000000000000000000 ) ) ;
#220 = DIRECTION ( 'NONE',  ( 1.000000000000000000, 0.0000000000000000000, 0.0000000000000000000 ) ) ;
#221 = SPHERICAL_SURFACE ( 'NONE', #222, 257.5400000000000200 ) ;
#222 = AXIS2_PLACEMENT_3D ( 'NONE', #228, #227, #226 ) ;
#223 =( LENGTH_UNIT ( ) NAMED_UNIT ( * ) SI_UNIT ( .MILLI., .METRE. ) );
#224 = AXIS2_PLACEMENT_3D ( 'NONE', #217, #220, #219 ) ;
#225 = CIRCLE ( 'NONE', #224, 257.5400000000000200 ) ;
#226 = DIRECTION ( 'NONE',  ( 0.0000000000000000000, 1.000000000000000000, 0.0000000000000000000 ) ) ;
#227 = DIRECTION ( 'NONE',  ( -1.000000000000000000, 0.0000000000000000000, 0.0000000000000000000 ) ) ;
#228 = CARTESIAN_POINT ( 'NONE',  ( 0.0000000000000000000, 0.0000000000000000000, -256.3850000000000500 ) ) ;
#229 =( GEOMETRIC_REPRESENTATION_CONTEXT ( 3 ) GLOBAL_UNCERTAINTY_ASSIGNED_CONTEXT ( ( #231 ) ) GLOBAL_UNIT_ASSIGNED_CONTEXT ( ( #241, #238, #235 ) ) REPRESENTATION_CONTEXT ( 'NONE', 'WORKASPACE' ) );
#230 = SURFACE_STYLE_USAGE ( .BOTH. , #242 ) ;
#231 = UNCERTAINTY_MEASURE_WITH_UNIT (LENGTH_MEASURE( 1.000000000000000100E-005 ), #241, 'distance_accuracy_value', 'NONE');
#232 = DIRECTION ( 'NONE',  ( 1.000000000000000000, 0.0000000000000000000, 0.0000000000000000000 ) ) ;
#233 = MECHANICAL_DESIGN_GEOMETRIC_PRESENTATION_REPRESENTATION (  '', ( #246 ), #229 ) ;
#234 = DIRECTION ( 'NONE',  ( 0.0000000000000000000, 0.0000000000000000000, 1.000000000000000000 ) ) ;
#235 =( NAMED_UNIT ( * ) SI_UNIT ( $, .STERADIAN. ) SOLID_ANGLE_UNIT ( ) );
#236 = CARTESIAN_POINT ( 'NONE',  ( 0.0000000000000000000, 0.0000000000000000000, 0.0000000000000000000 ) ) ;
#237 = ADVANCED_BREP_SHAPE_REPRESENTATION ( '4503-E0W', ( #14, #244 ), #249 ) ;
#238 =( NAMED_UNIT ( * ) PLANE_ANGLE_UNIT ( ) SI_UNIT ( $, .RADIAN. ) );
#239 = PRESENTATION_LAYER_ASSIGNMENT (  '', '', ( #246 ) ) ;
#240 = FILL_AREA_STYLE_COLOUR ( '', #245 ) ;
#241 =( LENGTH_UNIT ( ) NAMED_UNIT ( * ) SI_UNIT ( .MILLI., .METRE. ) );
#242 = SURFACE_SIDE_STYLE ('',( #247 ) ) ;
#243 = PRESENTATION_STYLE_ASSIGNMENT (( #230 ) ) ;
#244 = AXIS2_PLACEMENT_3D ( 'NONE', #236, #234, #232 ) ;
#245 = COLOUR_RGB ( '',0.7960784313725489700, 0.8235294117647058400, 0.9372549019607843100 ) ;
#246 = STYLED_ITEM ( 'NONE', ( #243 ), #237 ) ;
#247 = SURFACE_STYLE_FILL_AREA ( #248 ) ;
#248 = FILL_AREA_STYLE ('',( #240 ) ) ;
#249 =( GEOMETRIC_REPRESENTATION_CONTEXT ( 3 ) GLOBAL_UNCERTAINTY_ASSIGNED_CONTEXT ( ( #58 ) ) GLOBAL_UNIT_ASSIGNED_CONTEXT ( ( #223, #213, #215 ) ) REPRESENTATION_CONTEXT ( 'NONE', 'WORKASPACE' ) );
#250 = SHAPE_DEFINITION_REPRESENTATION ( #256, #237 ) ;
#251 = PRODUCT_RELATED_PRODUCT_CATEGORY ( 'part', '', ( #261 ) ) ;
#252 = PRODUCT_DEFINITION_FORMATION_WITH_SPECIFIED_SOURCE ( 'ANY', '', #261, .NOT_KNOWN. ) ;
#253 = PRODUCT_DEFINITION ( 'UNKNOWN', '', #252, #254 ) ;
#254 = PRODUCT_DEFINITION_CONTEXT ( 'detailed design', #260, 'design' ) ;
#255 = APPLICATION_PROTOCOL_DEFINITION ( 'draft international standard', 'automotive_design', 1998, #260 ) ;
#256 = PRODUCT_DEFINITION_SHAPE ( 'NONE', 'NONE',  #253 ) ;
#257 = APPLICATION_CONTEXT ( 'automotive_design' ) ;
#258 = PRODUCT_CONTEXT ( 'NONE', #257, 'mechanical' ) ;
#259 = APPLICATION_PROTOCOL_DEFINITION ( 'draft international standard', 'automotive_design', 1998, #257 ) ;
#260 = APPLICATION_CONTEXT ( 'automotive_design' ) ;
#261 = PRODUCT ( '4503-E0W', '4503-E0W', '', ( #258 ) ) ;
ENDSEC;
END-ISO-10303-21;
